Guitaretab - guitar tabs
Song name
# A B C D E F G H I J K L M N O P Q R S T U V W X Y Z

Vains Of Jenna - Babys Got A Secret tab

E||----------------------|-----------------------|----------------------| 
B||----------------------|-----------------------|----------------------| 
G||----------------------|-----------------4b----|----------------------| 
D||--4----4----4----4----|--4----4----4----------|--4----4----4----4----| 
A||--4----4----4----4----|--4----4----4----------|--4----4----4----4----| 
E||--2----2----2----2----|--2----2----2----------|--2----2----2----2----| 


-----------------------|| 
-----------------------|| 
-----------------4b----|| 
--4----4----4----------|| 
--4----4----4----------|| 
--2----2----2----------|| 






then in this order 

[ Tab from: http://www.guitaretab.com/v/vains-of-jenna/83172.html ]
E||----------------------|------------|-------|-------|| 
B||----------------------|------------|-------|-------|| 
G||-------2----4---------|--4----2----|-------|-------|| 
D||--4----2----4----4----|--4----2----|-------|-------|| 
A||--4----0----2----4----|--2----0----|-------|-------|| 
E||--2--------------2----|------------|-------|-------|| 



then 

 
E||----------------------|-------------------------|-------|| 
B||----------------------|-------------------------|-------|| 
G||-------5----4----2----|--4----4----2----4brb----|--2----|| 
D||--4-------------------|-------------------------|-------|| 
A||----------------------|-------------------------|-------|| 
E||----------------------|-------------------------|-------||
Related for Babys Got A Secret tab
Advertisement will be closed in 10 seconds