Song name
# A B C D E F G H I J K L M N O P Q R S T U V W X Y Z

Vains Of Jenna - Lit Up Let Down tab

E||------------------------------------------------------------|
B||------------3-----------------------------3p0---------------|
G||----------------------0--------------0----------------0-----|
D||-------0---------0--------------0----------------0----------|
A||---------------------------1--------------------------------|
E||--3---------------------------------------------------------|

E||--------------------------------------3----||
B||--------------------------------------3----||
G||--------------0h2p0---------0--------------||
D||-------0h2-------------2-------------------||
A||--3----------------------------------------||
E||---------------------------------3---------||


E||----------------------------------------------1-------------------|
B||------------3--------------------------------------1--------------|
G||------------------------0-------------------------------2---------|
D||-------0---------0---------------------3---------------------3----|
A||----------------------------------3-------------------------------|
E||--3--------------------------1------------------------------------|

E||-------------------------------3--------|
B||-------------------------------3--------|
G||----------0h2p0------0------------------|
D||-----0h2----------2---------------------|
A||--3-------------------------------------|
E||---------------------------3------------|


then heres the heavy chords

E||----------------------|
B||----------------------|
G||------------7----5----|
D||--2----5----7----5----|
A||--2----5----5----3----|
E||--0----3--------------|
Tap to rate this tab
 
# A B C D E F G H I J K L M N O P Q R S T U V W X Y Z