Song name
# A B C D E F G H I J K L M N O P Q R S T U V W X Y Z

Vains Of Jenna - Ceased Emotions tab

E||----------------------------------------------------|
B||------------5-3-----5-3--------------5-3-----5-3----|
G||------------5-3-----5-3--------------5-3-----5-3----|
D||5-3-4-5-5-------5-------5-3-4-5-5-------5-----------|
A||----------------------------------------------------|
E||----------------------------------------------------|


chords

E||---------|
B||-------5-|
G||-------5-|
D||-5--3--3-|
A||-5--3----|
E||-3--1----|
Tap to rate this tab
# A B C D E F G H I J K L M N O P Q R S T U V W X Y Z