Song name
# A B C D E F G H I J K L M N O P Q R S T U V W X Y Z

Vains Of Jenna - Dont Give A Damn tab

                                                           TUNING:STANDARD
---------------------------------|
---------------------------------|
---------------------------------|
-------8---7---5-----2--222--2-2-|
-------6---5---3-----0--000--0-0-|
---------------------------------|
                        ***
---------------------------------|
---------------------------------|
---------------------------------|
-------8---7---5-----2--222--2-2-|
-------6---5---3-----0--000--0-0-|
---------------------------------|
                        ***
---------------------------------|
---------------------------------|
---------------------------------|
-------8---7---5-----------------|
-------6---5---3-----5--555--5-5-|
---------------------3--333--3-3-|
                        ***
---------------------------------|
---------------------------------|
---------------------------------|
-------8---7---5-----2--222--2-2-|
-------6---5---3-----0--000--0-0-|
---------------------------------|
                        ***
RIFF 2
---------------------------------|
---------------------------------|
---------------------------------|
-------88--77--55--22-222--2-2---|
-------66--55--33--00-000--0-0---|
---------------------------------|
                      ***
---------------------------------|
---------------------------------|
---------------------------------|
-------88--77--55--22-222--2-2---|
-------66--55--33--00-000--0-0---|
---------------------------------|
                      ***                                 PLAY RIFF 2
---------------------------------|
---------------------------------|
---------------------------------|
-------88--77--55----------------|
-------66--55--33--55-555--5-5---|
-------------------33-333--3-3---|
                      ***
---------------------------------|
---------------------------------|
---------------------------------|
-------88--77--55--22-222--2-2---|
-------66--55--33--00-000--0-0---|
---------------------------------|
                      ***
Tap to rate this tab
# A B C D E F G H I J K L M N O P Q R S T U V W X Y Z