Song name
# A B C D E F G H I J K L M N O P Q R S T U V W X Y Z

Valejjo - Into The New tab

Artist: Valeho
Song Title: Into the New
Tabbed by: Joel


     Here is the song by the new band Valeho

    The verse is:

e-------------------------------------------|
B-------------------------------------------|
G-------------------------------------------|
D-4-4--4-4-4--4-4-4--4--7-9-----------------|
A-4-4--4-4-4--4-4-4--4--7-9-----------------|
E-2-2--2-2-2--2-2-2--2--5-7-----------------|


  You do that for the entire verse and then for the chorus you play:
 "out with the old, into the new, i speak from the truth"
e---------------------------------------|
B---------------------------------------|
G---------------------------------------|
D--7-7--7-7-7--7--9-9--9-9-9--9---------|
A--7-7--7-7-7--7--9-9--9-9-9--9---------|
E--5-5--5-5-5--5--7-7--7-7-7--7---------|

after you play that, you just go back to the riff that you play for
the verse.  After the little bridge in the middle of the song, he
just holds out the first chord of the verse.  That's pretty much the
whole song!
Tap to rate this tab
 
# A B C D E F G H I J K L M N O P Q R S T U V W X Y Z