Song name
# A B C D E F G H I J K L M N O P Q R S T U V W X Y Z

Valencia - Safe To Say Acoustic tab

-------------------------------------------------------------------------------
		            Safe to Say (Acoustic) - Valencia
-------------------------------------------------------------------------------
Tabbed by: Sean Hummer
Email: allstar21369@hotmail.com
Website: www.myspace.com/nomeansnocorey

Shane played this live during a Promise of Redemption show (and I actually
corrected a few parts he played wrong).

Great song.


Tuning: Half A Step Down (Flat)

Chords Used-

  D5     Gsus2    B5      A5      G5     D/F#    Dmaj7
|-----| |-----| |-----| |-----| |-----| |-----| |-----|
|--3--| |--3--| |-----| |-----| |--3--| |--3--| |--2--|
|--2--| |--2--| |--4--| |--2--| |--0--| |--0--| |--2--|
|--0--| |--0--| |--4--| |--2--| |--0--| |--0--| |--0--|
|-----| |--x--| |--2--| |--0--| |--x--| |--0--| |-----|
|-----| |--3--| |-----| |-----| |--3--| |--2--| |-----|




Intro/Chorus-
e|-------------------------------------------|
B|-------------------------------------------|
G|11--11-11-11---9---9--9--9----9h11-11-11---|
D|0---0--0--0----0---0--0--0----0----0--0----|
A|x---x--x--x----x---x--x--x----x----x--x----|
E|10--10-10-10---10--10-10-10---10---10-10---|

e|-------------------------|
B|-------------------------|
G|4--4-4-4---2--2-2-2--2---|
D|0--0-0-0---0--0-0-0--0---|
A|x--x-x-x---x--x-x-x--x---|
E|3--3-3-3---3--3-3-3--3---|

e|-------------------------------------------|
B|-------------------------------------------|
G|11--11-11-11---9---9--9--9----9h11-11-11---|
D|0---0--0--0----0---0--0--0----0----0--0----|
A|x---x--x--x----x---x--x--x----x----x--x----|
E|10--10-10-10---10--10-10-10---10---10-10---|

e|--------------------------------|
B|--------------------------------|
G|7--7-7-7---6--6-6-6---6h7-7-7---|
D|0--0-0-0---0--0-0-0---0---0-0---|
A|x--x-x-x---x--x-x-x---x---x-x---|
E|7--7-7-7---7--7-7-7---7---7-7---|

(Repeat Intro)

e|--------------|
B|--------------|
G|2~---2-2-2~---|
D|0~---0-0-0~---|
A|x----x-x-x----|
E|3~---3-3-3~---|




Verse-
               D5
We watched the sunset
                               Gsus2
And we told ourselves to never forget
                               D5
Just how good it felt to be surrounded
                                Gsus2
By a town that we knew like the back of our hands

         B5   A5            G5
We felt alive, home for the very first time.




(Intro/Chorus) x2




(Post-Chorus) x2




Verse-
            D5
It's been a year now
                           Gsus2
But I still appreciate the sundown
                                  D5
It reminds me somehow things will work out
                                Gsus2
And I'll fall to your arms just like I'd always do

           B5   A5          G5                      B5   A5
It felt so good, it was the very first time I felt alive
          G5
Yeah, so alive




(Intro/Chorus) x2




(Post-Chorus) x2




Bridge-
D5     G5     D/F#     G5

(Or play this...)

e|----10~-----------10~-------------10~-----------10~---------|
B|7h8-----8p7h8-7h8-----8p7h8---7h8-----8p7h8-7h8-----8p7h8---|
G|7-------------7---------------0-------------0---------------|
D|0-------------0---------------0-------------0---------------|
A|------------------------------------------------------------|
E|------------------------------------------------------------|

e|----10~-----------10~-------------10~-----------10~---------|
B|7h8-----8p7h8-7h8-----8p7h8---7h8-----8p7h8-7h8-----8p7h8---|
G|0-------------0---------------0-------------0---------------|
D|x-------------x---------------0-------------0---------------|
A|9-------------9---------------------------------------------|
E|------------------------------------------------------------|


D5    
If I could sing this out loud I'd scream it to the clouds
G5
And everyone in this town would know what I'm about
B5
I'd rather die than feel this pain take me over again
G5
It's so hard to let you go

D5     G5     D5     G5
D5     G5     B5     G5

Is it safe to say?

D5     G5     D5     G5




Outro-
      D5                 G5
Is it safe to say in the morning you'll come back
                D5
And things will be the same?
       G5                                  D5
'Cause since the day you left you know I've had a hard time
      G5                      D5
And I want you to know if you hear these words
G5
Please just come back

D5              G5                  D5   Dmaj7   G5
Oh oh ohh oh    Oh oh ohh oh oh     Oh ohh ohh oh





| PM palm mute
| /  slide up
| \  slide down
| h  hammer-on
| p  pull-off
| ~  let ring
| b  bend
| *  substitute
| x  mute note
| +  harmonic

===============================================================================
Tap to rate this tab
# A B C D E F G H I J K L M N O P Q R S T U V W X Y Z