Song name
# A B C D E F G H I J K L M N O P Q R S T U V W X Y Z

Valencia - Away We Go Acoustic tab

----------------------------------------------------------------------------
			     Away We Go - Valencia
----------------------------------------------------------------------------

Tabbed by:Jason
Email:Jayzjr2003@aol.com

Tuning:Standard

This is the acoustic version made by shane of Valencia under his side project Promise of
Listen to the song for the strumming. its hard to tab out how many times each chord is
so effin deal. its mostly variations of the chorus line. the strumming just changes on 
parts. theres also two guitars in it and i just tabbed out the main parts. cuz im
and dont feel like figuring the rest out..

opening riff
e|-------------------------------------------------------------------------|
B|--/10-7-8-7-8-7-\3--/10-8-7-8-7-8-7-8-7-x2-------------------------------|
G|-------------------------------------------------------------------------|
D|-------------------------------------------------------------------------|
A|-------------------------------------------------------------------------|
E|-------------------------------------------------------------------------|

   chorus .....(after 4th time) and away we go. and away we go.
e|-------------------------------------------------------------------------|
B|-33--33--33--333---------------------------------------------------------|
G|-00--22--00--000--x8-----------------------------------------------------|
D|-XX--00--22--000---------------------------------------------------------|
A|-33--00--22--222---------------------------------------------------------|
E|-------------333---------------------------------------------------------|

 verse)    (this part looks confusing but play it, it sounds(and is) right)

   (holding on to broken hearts...) (..your tying too hard to be my friend.)
e|--3--5--7-------------------------|--5--7---------------------------|
B|--X--X--X-------------------------|--X--X-7-------------------------|
G|--X-/X-/X-------------------------|--X-/X-X-------------------------|
D|--X--X--X-------------------------|--X--X-X-------------------------|repeat
A|--3--5--7-------------------------|--5--7-7-------------------------|
E|----------------------------------|---------------------------------|

  Im sorry wont cut it for the rest of your life.. (figure out strumming)
e|----------------------------------------------------------------------|
B|-3--3--3--333---------------------------------------------------------|
G|-0--2--0--000---------x4----------------------------------------------|
D|-X--0--2--000---------------------------------------------------------|
A|-3--0--2--222---------------------------------------------------------|
E|----------333---------------------------------------------------------|

 chorus again
 (strumming changes)and away we go..
e|-------------------------------------------------------------------------|
B|-33--33--33--333---------------------------------------------------------|
G|-00--22--00--000--x8-----------------------------------------------------|
D|-XX--00--22--000---------------------------------------------------------|
A|-33--00--22--222---------------------------------------------------------|
E|-------------333---------------------------------------------------------|

 verse again
(and your falling faster...)         (that you wished your whole body on..)
e|--3--5--7-------------------------|--5--7---------------------------|
B|--X--X--X-------------------------|--X--X-7-------------------------|
G|--X-/X-/X-------------------------|--X-/X-X-------------------------|
D|--X--X--X-------------------------|--X--X-X-------------------------|repeat
A|--3--5--7-------------------------|--5--7-7-------------------------|
E|----------------------------------|---------------------------------|

 Im sorry wont cut it for the rest of your life.. (figure out strumming)
e|----------------------------------------------------------------------|
B|-3--3--3--333---------------------------------------------------------|
G|-0--2--0--000---------------------------------------------------------|
D|-X--0--2--000---------------------------------------------------------|
A|-3--0--2--222---------------------------------------------------------|
E|----------333---------------------------------------------------------|

           (and away we go.)        ( we go..)
e|-------------------------------------------------------------------------|
B|-------------------------------------------------------------------------|
G|---99-7-9-5-------------------------55-77--------------------------------|
D|---99-7-9-5-------x10---------------55/77--------------------------------|
A|---77-5-7-3-------------------------33-55--------------------------------|
E|-------------------------------------------------------------------------|

Im sorry wont cut it for the rest of your life..
e|----------------------------------------------------------------------|
B|-3--3--3--333---------------------------------------------------------|
G|-0--2--0--000---------------------------------------------------------|
D|-X--0--2--000---------------------------------------------------------|
A|-3--0--2--222---------------------------------------------------------|
E|----------333---------------------------------------------------------|

    (agaaain..)
e|-------------------------------------------------------------------------|
B|-------------------------------------------------------------------------|
G|---99-7-9-5------------------99-7-9-7-9----------------------------------|
D|---99-7-9-5------------------99-7-9-7-9\---------------------------------|
A|---77-5-7-3------------------77-5-7-5-7----------------------------------|
E|-------------------------------------------------------------------------|

Listen to the song a couple of times and this should make sense. this is my first tab so
i messed up let me know n it will be changed.  for all i know this looks like a bunch
gibberish so i hope its ok. oh and i have 2 say shannon helped with this. there u go.

| /  slide up
| \  slide down
| h  hammer-on
| p  pull-off
| ~  vibrato
| +  harmonic
| x  Mute note
============================================================================
Tap to rate this tab
# A B C D E F G H I J K L M N O P Q R S T U V W X Y Z