Song name
# A B C D E F G H I J K L M N O P Q R S T U V W X Y Z

Valencia - From The Second I Wake Up Live tab

-------------------------------------------------------------------------------
			     From the Second I Wake Up (live) intro - Valencia/Promise of Redemption
-------------------------------------------------------------------------------
Tabbed by:ian


Tuning:standard

      D   D U D      D             D
e|----0---0-0-0-0----0-------------0---------|
B|----1---1-1-3------1-------------1---------|
G|----2---0-0-0------2-------------2---------|
D|----0-----------3--3-------------0---------|
A|-3--3------------------0h3-3h5-3-3---------|
E|-------------------------------------------|


U = upstroke
D = downstroke
Tap to rate this tab
# A B C D E F G H I J K L M N O P Q R S T U V W X Y Z