Song name
# A B C D E F G H I J K L M N O P Q R S T U V W X Y Z

Valencia - From The Second I Wake Up tab

----------------------------------------------------------------------------
      From the Second I Wake Up - Valencia/Promise of Redemption
----------------------------------------------------------------------------
Tabbed by: Jason Z
Email:Jayzjr2003@aol.com

Tuning:standard

Ok. The other tab for this is completely wrong. I've watched him play this a number of
now and im pretty sure this is exactly how he plays this. The verse sections aren't going
perfect because it has little changes throughout it so deal with what i got. I tried to 
the words over the chords for when they change here we go.


(intro)                  (2x)|(verse)
e|----0-----------0----------|---0-----------0---------------|
B|----2---0h2-----2----------|---2-----------2---------------|
G|----2------0----2----------|---2-----------2---------------|
D|---------------------------|-----0-0-0-0-0-----------------|
A|--0------------------0h2-0-|-----0-0-0-0-0------0h2-0------|
E|--------------2---0h2------|-----0-0-1-0-1---0h2-----------|


    (& the only)  (i feel ok)  (in your arms)
e|----------0-------------0------------------------------|
B|----------0-------------3--------------0---------------|
G|----------1-------------2--------------2---------------|
D|----------2-------------0--------------2---------------|
A|----------2-------------0--------------0---------------|
E|---------------------------------------0---------------|

(intro again)            (2x)|(verse again)(x whatever)
e|----0-----------0----------|---0-----------0---------------|
B|----2---0h2-----2----------|---2-----------2---------------|
G|----2------0----2----------|---2-----------2---------------|
D|---------------------------|-----0-0-0-0-0-----------------|
A|--0------------------0h2-0-|-----0-0-0-0-0------0h2-0------|
E|--------------2---0h2------|-----0-0-1-0-1---0h2-----------|


(w/ every breath) (swear on)  (Lungs)     (with you)
e|----------0-------0------------0----0-----------------|
B|----------0-------3------------0----3----------0------|
G|----------1-------2------------1----2----------2------|
D|----------2-------0------------2----0----------2------|
A|----------2-------0------------2----0----------0------|
E|-----------------------------------------------0------|

  (Yeah)    (I dont know)       (say this)
e|--0---------------------------------------------|
B|--3--------3-------------------3----------------|
G|--2--------0-------------------0----------------|x4
D|--0--------0-------------------2----------------|
A|--0--------2-------------------3----------------|
E|-----------3------------------------------------|

 (so far away from home)
e|-0--0--------------3------------------------------------|
B|-1--1--------------0------------------------------------|
G|-2--0--------------0------------------------------------|x alot
D|-2--2--------------0------------------------------------|
A|-0--3--------------2------------------------------------|
E|-------------------3------------------------------------|


                       (outro)
(dont ever change)
e|-0------0---------------3---------------------------|
B|-1------1---------------0---------------------------|
G|-2------0---------------0---------------------------| till the end
D|-2------2---------------0---------------------------|
A|-0------3---------------2---------------------------|
E|------------------------3---------------------------|

towards the end pick some single notes in there n it'l sound cooler haha.

so thats pretty much everything. this is the "live" version of the song so i left out
little riff at the end of the recorded version but if you want it i came up with
 (solo riff)
e|--/3-3-3------------------------------------------------------------|
B|----------1-1-3/5-3---1-3-1-3-3/5-1------1-3-1-3-3/5-3--------------|
G|--------------------------------------------------------------------|
D|--------------------------------------------------------------------|
A|--------------------------------------------------------------------|
E|--------------------------------------------------------------------|

okay. let me know what u guys think.

Jason
Tap to rate this tab
# A B C D E F G H I J K L M N O P Q R S T U V W X Y Z