Song name
# A B C D E F G H I J K L M N O P Q R S T U V W X Y Z

Valentines - Blam Blam Fever tab

Highlighted       Show chord diagrams
-------------------------------------------------------------------------------
			     Blam Blam Fever - The Valentines
-------------------------------------------------------------------------------
Tabbed by: Bumcivilian

Play the chords for 4 beats each. Use barre chords (E# at fret 8, Dm at 5, G at 3), and 
them in reggae style on the off-beat.

I'm not sure about all of the lyrics, so if you think they're wrong then they probably 
Listen to the song to get any of the rhythm or timing. The chords positions over the 
are general, listen to the song and it's easy to fit them in.

Intro:
e|-------------------------------------------------------|
B|-------------------------------------------------------|
G|-------------------------------------------------------|
D|-------------------------------------------------------|
A|-3-3-4-4-4-5-5----5-5-5-4-4-4-3-3--(x2)--3-3-3--5-5--7-|
E|-------------------------------------------------------|

    E#                       Dm
Did you read the news? I'm a bit confused,
       E#                      Dm
The gun fever is back, the gun fever!
E#                      Dm
Rudeness and gun is the talk of this town,
       E#                      Dm
The gun fever is back, the gun fever!

G
Everytime you .............., (no idea what the lyric is here)
     G
It's man shot dead or lookin' at war.
          E#               E#
It's the fever, oh the gun fever!
    G
The simplest thing is blam blam blam,
G
What is this in our little island?
         E#                 E#
It's the fever, oh the gun fever!

        E#                       Dm
You can know a rude chap, by the way he set his cap, lord,
        E#                     Dm
The gun fever is back, the gun fever!
     E#                                Dm
The rudie talk is seen, lord, I don't know what it mean,
         E#                     Dm
The gun fever is back, the gun fever!

G
Everytime you ..............,
     G
It's man shot dead or lookin' at war.
          E#               E#
It's the fever, oh the gun fever!
    G
The simplest thing is blam blam blam,
G
What is this in our little island?
         E#                 E#
It's the fever, oh the gun fever!


Solo: G---G---E#---E#--- x2 with:

e|---------------------------------------------------------------------------|
B|---------------------------------------------------------------------------|
G|---------------------------------------------------------------------------|
D|-3--------4--------5-----3/5-3---------5---------3-----------1/3-3---------|
A|--5-3-5-----5-3-5--------------5---------5-3-5-----5-3-5------------5-3----|
E|---------------------------------3-----------------------3---------------1-|
                                                                          x2

e|-----------------|
B|-----------------|
G|-----------------|
D|-----------------|
A|----------1---3--|
E|--1---5----------|

        E#                       Dm
You can know a rude chap, by the way he set his cap, lord,
        E#                     Dm
The gun fever is back, the gun fever!
     E#                                Dm
The rudie talk is seen, lord, I don't know what it mean,
         E#                     Dm
The gun fever is back, the gun fever!


G
Everytime you .............,
     G
It's man shot dead or lookin' at war.
          E#               E#
It's the fever, oh the gun fever!
    G
The simplest thing is blam blam blam,
G
What is this in our little island?
         E#                  E#
It's the fever, oh, the gun fever!
E#
Oh! The gun fever! (Repeat till fade)
Tap to rate this tab
 
# A B C D E F G H I J K L M N O P Q R S T U V W X Y Z