Song name
# A B C D E F G H I J K L M N O P Q R S T U V W X Y Z

Valient Thorr - Man Behind The Curtain tab

E-----------------------------------------------------------|
B-----------------------------------------------------------|
G--7--p-5----5------7-p-5------5--------7-p-5---------------|
D-----------7-----------------7---------------------7-------|
A-----------------------------------------------------------|
E-----------------------------------------------------------|
                   b                    b                   ~
E-----------------------------------------------------------|
B-10-p-8----8---10-p-8-----8----10-p-8----------------------|
G----------9----------------9------------------9------------|
D-----------------------------------------------------------|
A-----------------------------------------------------------|
E-----------------------------------------------------------|

E-----------------------------------------------------------|
B-----------------------------------------------------------|
G-2---------------------------------------------------------|
D-2-4---5--5--6--6--7---------------------------------------|
A-0-4---5--5--6--6--7---------------------------------------|
E----2--3--3--4--4--5---------------------------------------|
Tap to rate this tab
# A B C D E F G H I J K L M N O P Q R S T U V W X Y Z