Song name
# A B C D E F G H I J K L M N O P Q R S T U V W X Y Z

Valient Thorr - Heatseeker tab

e------------2---------|
B------------3---------|
G-----X-X-X--2-----2---|
D---2-X-X-X--0--0--2---|  X2
A-0---X-X-X-----2--0---|
E-----X-X-X-----3------|
Then later on in the song.
Not %100 Correct

e-------------|
B-------------|
G-------------|
D---2-------2-|    Repeat
A-0---2h3h4---|
E-------------|
You have been Immortalized

Alihoyus Thorriors
Tap to rate this tab
# A B C D E F G H I J K L M N O P Q R S T U V W X Y Z