Song name
# A B C D E F G H I J K L M N O P Q R S T U V W X Y Z

Valient Thorr - 1000 Winters In A Row tab

i play C. The actual song is in drop D, but i learned it in C so just drop it two 
steps down if you want it to sound right in D.

|---------------------------------------|
|-7-5h7-7-5h7p5-------------------------|
|--------------6-4----------------------|
|------------------7-4h7p4----------/4~-|
|-------------------------h7-----4------|
|----------------------------4h7---7----|

|--------------------------|
|--------------------------|
|-/6-9-9p6----------9-6----| play these two a 
|---------9p7----/6--------| few times and then
|------------9p7-----------| power chord finish
|-----------------------4~-| <--- the last 4

|---------------------------------------| |--------------------------|
|-6/7~----------------------------------| |----------------12b~------|
|------------6-----9-----4-----9---9/11-| |-11b~-13b~-14b~------14b~-|
|------4-0-0-6-0-0-9-0-0-4-0-0-9-9-9/11-| |--------------------------|
|------4-0-0-4-0-0-7-0-0-2-0-0-7-9-7/9--| |--------------------------|
|------4-0-0---0-0---0-0---0-0---9------| |--------------------------|
         x x   x x   x x   x x
(the next power chord part uses this same template)

|--------------------------------------------14-12-14b~-|
|--------------------------12-10-12-14-12-14------------|
|-11b~-13b~-11b~--14-13-14------------------------------|
|-------------------------------------------------------|
|-------------------------------------------------------|
|-------------------------------------------------------|

|-19-17-16-16h17p16----16-------------/19-19~-/21-21-21b~-|
|-------------------17----17/19---------------------------|
|-------------------------------18b~----------------------|
|---------------------------------------------------------|
|---------------------------------------------------------|
|---------------------------------------------------------|

power chords again.

|-----------------------------------------------------------|
|-----------------------------------------------------------|
|---------------------------------------------11-11---11-11-|
|-------------------------------------------0-11-11-0-x--x--|
|-7h9-----7h9-7h9----7h9-7h9----7h9-7h9-----0-9--9--0-9--9--|
|-----0000-------0000-------0000-------0000-0-------0-------|
      xxxx       xxxx       xxxx       xxxx x       x       

i'm gonna finish it off in a bit.
Tap to rate this tab
 
# A B C D E F G H I J K L M N O P Q R S T U V W X Y Z