Song name
# A B C D E F G H I J K L M N O P Q R S T U V W X Y Z

Valient Thorr - Fall Of Pangea tab

b  bend
/  slide up
\  slide down
h  hammer-on
p  pull-off
~  vibrato
+  harmonic
x  mute note
TR trill

Intro
8x
-----------------------------------------------------------------------------|
-----------------8----8---------7--------------------------------------------|
----------5----------------7---------7----9-----5----------------------------|
---7-------------------------------------------------------------------------|
-----------------------------------------------------------------------------|
-----------------------------------------------------------------------------|

Verse 1
8x
------------------------------------------------------------------------------|
------------------------------------------------------------------------------|
------------------------------------------------------------------------------|
------------------------------------------------------------------------------|
7--7--x--7--7--x--7--7--x--2--2--3--------------------------------------------|
5--5--x--5--5--x--5--5--x--4--4--5--------------------------------------------|


Chorus 1
x2
-----------------------------------------------------------------------------|
-----------------------------------------------------------------------------|
-----------------------------------------------------------------------------|
----10----------12-----5-----------------------------------------------------|
----8-----------10-----7-----------------------------------------------------|
-----------------------------------------------------------------------------|

Verse 1 Pt 2
4x
------------------------------------------------------------------------------|
------------------------------------------------------------------------------|
------------------------------------------------------------------------------|
------------------------------------------------------------------------------|
7--7--x--7--7--x--7--7--x--2--2--3--------------------------------------------|
5--5--x--5--5--x--5--5--x--4--4--5--------------------------------------------|

Chorus 1 Pt 2
x2
-----------------------------------------------------------------------------|
-----------------------------------------------------------------------------|
-----------------------------------------------------------------------------|
----10----------12-----5-----------------------------------------------------|
----8-----------10-----7-----------------------------------------------------|
-----------------------------------------------------------------------------|

Verse 1 Riff 2

-----------------------------------------------------------------------------|
-----------------------------------------------------------------------------|
---------------------------------------------------7-------------------------|
---------------------------------------------------7---7---------------------|
--------------7------------------7---------------------7---------------------|
---5--7--8----5-------5--7--8----5-----5--7--8-------------------------------|

-----------------------------------------------------------------------------|
-----------------------------------------------------------------------------|
---------------------------------7-------------------------------------------|
---------------------------------7---7--------------------------------5--6---|
--------------7----------------------7---------------7----------------5--6---|
--5--7--8-----5------5--7--8-------------5--7--8-----5----5--7--8------------|

-----------------------------------------------------------------------------|
-----------------------------------------------------------------------------|
----------------------------------7------------------------------------------|
----------------------------------7----7-------------------------------------|
---7--------------7--------------------7-------------------------------------|
---5---5--7--8----5-----5--7--8----------------------------------------------|

-----------------------------------------------------------------------------|
-----------------------------------------------------------------------------|
---------------------------------7-------------------------------------------|
---------------------------------7---7--------------------------------5--6---|
--------------7----------------------7---------------7----------------5--6---|
--5--7--8-----5------5--7--8-------------5--7--8-----5----5--7--8------------|

-----------------------------------------------------------------------------|
-----------------------------------------------------------------------------|
----------------------------------7------------------------------------------|
----------------------------------7----7-------------------------------------|
---7--------------7--------------------7-------------------------------------|
---5---5--7--8----5-----5--7--8----------------------------------------------|

-----------------------------------------------------------------------------|
-----------------------------------------------------------------------------|
---------------------------------7-------------------------------------------|
---------------------------------7---7--------------------------------5--6---|
--------------7----------------------7---------------7----------------5--6---|
--5--7--8-----5------5--7--8-------------5--7--8-----5----5--7--8------------|

-----------------------------------------------------------------------------|
-----------------------------------------------------------------------------|
----------------------------------7------------------------------------------|
----------------------------------7----7-------------------------------------|
---7--------------7--------------------7-------------------------------------|
---5---5--7--8----5-----5--7--8----------------------------------------------|

-----------------------------------------------------------------------------|
-----------------------------------------------------------------------------|
---------------------------------7-------------------------------------------|
---------------------------------7---7--------------------------------5--6---|
--------------7----------------------7---------------7----------------5--6---|
--5--7--8-----5------5--7--8-------------5--7--8-----5----5--7--8------------|

Solo 1

-----------------------------------------------------------------------------|
-----14-----12--------------------------------------12------15----12----14---|
----------------------11-----11-----9----------11----------------------------|
-----------------------------------------12----------------------------------|
-----------------------------------------------------------------------------|
-----------------------------------------------------------------------------|

---------------------17------14----------------------------------------------|
---------------------17------14--------17---17----14/8\12--------------------|
-----------------------------------------------------------------------------|
-----------------------------------------------------------------------------|
-----------------------------------------------------------------------------|
-----------------------------------------------------------------------------|

-----------------------------------------------------------------------------|
-----------------------------------------------------------------------------|
(harmonized)---15b--15---12--------------------------------------------------|
------------------------------14b--14---12-----------------------------------|
---------------------------------------------14(hold)------------------------|
-----------------------------------------------------------------------------|

-----------------------------------------------------------------------------|
-----------------------------------------------------------------------------|
-----------------------------------------------------------------------------|
-----------------------------------------------------------------------------|
-------12------14-----16-----17----16----12----12----14----------------------|
-----------------------------------------------------------------------------|

Fast Part

-----------------------------------------------------------------------------|
-------------15b-------------15b---------------------------------------------|
-----15b+----15b---15---12---15b--15---12------15----------------------------|
-------------------------------------------14--------------------------------|
-----------------------------------------------------------------------------|
-----------------------------------------------------------------------------|

-----------------------------------------------------------------------------|
-----------------------------------------------------------------------------|
----15b----15----12-------12-------------------------------------------------|
---------------------14------14----12---14+---11TR12-------11h12-----------------|
-------------------------------------------------------14----------14p12p11---|
-----------------------------------------------------------------------------|

-----------------------------------------------------------------------------|
-----------------------------------------------------------------------------|
-----------------------------------------------------------------------------|
---------------------11h12---14p12p11h12----14p12p11h12+---------------------|
---------11h12h14------------------------------------------------------------|
-----------------------------------------------------------------------------|

(harmonized)---15---17--15TR14--15--17--15TR14-------------------------------|
--------------------------------------------------17-15-14TR15---------------|
-----------------------------------------------------------------------------|
-----------------------------------------------------------------------------|
-----------------------------------------------------------------------------|
-----------------------------------------------------------------------------|

-----------------------------------------------------------------------------|
----------------------------14--15--17--14TR15--17b--17----------------------|
--17---15---14--14--15--17---------------------------------------------------|
-----------------------------------------------------------------------------|
-----------------------------------------------------------------------------|
-----------------------------------------------------------------------------|

--22--19p17h19--21--19p17h19----------------------21b--21b--21---------------|
------------------------------21p19p17h19h21--19~----------------------------|
-----------------------------------------------------------------------------|
-----------------------------------------------------------------------------|
-----------------------------------------------------------------------------|
-----------------------------------------------------------------------------|
Fill
12x

-----------------------------------------------------------------------------|
-----------------------------------------------------------------------------|
---------------7------------------4------------------------------------------|
-----------------------------------------------------------------------------|
-----------------------------------------------------------------------------|
-----------------------------------------------------------------------------|

Chorus 2
1x
-----------------------------------------------------------------------------|
-----------------------------------------------------------------------------|
-----------------------------------------------------------------------------|
------------------11-----9----9-------7--------------------------------------|
---9-------7------9------7----7-------5-----------5p0------------------------|
---7-------5----------------------------------7p0----------7----5------------|

3x
-----------------------------------------------------------------------------|
-----------------------------------------------------------------------------|
-----------------------------------------------------------------------------|
----11------9-------9------7-------------------------------------------------|
----9-------7-------7------5------------5+p0---------------------------------|
---------------------------------7p0------------7---5------------------------|

Fill 2
16x
Increases Speed

-----------------------------------------------------------------------------|
-----------------------------------------------------------------------------|
-----------------------------------------------------------------------------|
-----------------------------------------------------------------------------|
---------5p0-----------------------------------------------------------------|
---7p0----------7-----5------------------------------------------------------|

Chorus 2
1x
-----------------------------------------------------------------------------|
-----------------------------------------------------------------------------|
-----------------------------------------------------------------------------|
------------------11-----9----9-------7--------------------------------------|
---9-------7------9------7----7-------5------------5p0-----------------------|
---7-------5----------------------------------7p0--------7----5--------------|

2x
-----------------------------------------------------------------------------|
-----------------------------------------------------------------------------|
-----------------------------------------------------------------------------|
----11-------9-----9------7--------------------------------------------------|
----9--------7-----7------5--------------5+p0--------------------------------|
------------------------------------7p0------------7---5---------------------|


-----------------------------------------------------------------------------|
-----------------------------------------------------------------------------|
-----------------------------------------------------------------------------|
----11-------9-----9------7--------------------------------------------------|
----9--------7-----7------5--------------------------------------------------|
------------------------------------7p0--------------------------------------|

Fill 3

-----------------------------------------------------------------------------|
-----------------------------------------------------------------------------|
-----------------------------------------------------------------------------|
-----------------------------------------------------------------------------|
------------5----------------------------------------------------------------|
-------------------5-----7------5-----7-----5--------------------------------|

Verse 2
4x

-----------------------------------------------------------------------------|
-----------------------------------------------------------------------------|
-----------------------------------------------------------------------------|
----------------------------4------5-----------------------------------------|
-------------------7--------2------3-----------------------------------------|
-------------------5---------------------------------------------------------|

Verse 2 Riff 2
2x

-----------------------------------------------------------------------------|
-----------------------------------------------------------------------------|
-----------------------------------------------------------------------------|
-----------------------------------------------------------------------------|
-7--7--x--7--7--x--7--7--4--4--5--7--7--x--7--7--x--7--7--10--10--9--9-------|
-5--5--x--5--5--x--5--5--2--2--3--5--5--x--5--5--x--5--5---8---8--7--7-------|

Solo 2

--------------------------------12h14h15--15h16h18--17h18h20--18--20--21--20-|
---------3---5---7---15---17-------------------------------------------------|
---------5b--7b--9b--17b--19b------------------------------------------------|
-----------------------------------------------------------------------------|
-----------------------------------------------------------------------------|
-5--7-8----------------------------------------------------------------------|

--19--19b--19---17--17b--17--15--15b--15--12--15-----------------------------|
-----------------------------------------------------------------------------|
-----------------------------------------------------------------------------|
-----------------------------------------------------------------------------|
-----------------------------------------------------------------------------|
-----------------------------------------------------------------------------|

-----------------------------------------------------------------------------|
--------------------------------------15b-----15b----------------------------|
------------5-------5----7+----5---7-----------------------------------------|
---5TR7---------7------------------------------------------------------------|
-----------------------------------------------------------------------------|
-----------------------------------------------------------------------------|

-----------------------------------------------------------------------------|
-----------------------------------------------------------------------------|
--------------------------12--14--12-----------------------------------------|
---------------12--14--15------------15--14--12------------------------------|
---12--14--15-----------------------------------15--14--12-------------------|
-----------------------------------------------------------------------------|

-----------------------------------------------------------------------------|
---------------------------------------------------------------19b-----------|
--------------------------15--17--15--------------17--19--20-----------------|
---------------15--17--18-------------18--17--15-----------------------------|
---15--17--18----------------------------------------------------------------|
-----------------------------------------------------------------------------|

-----------------------------------------------------------------------------|
---19b--19b---17--19--19b---12--15--15b--15--12------------------------------|
-------------------------------------------------14--------------------------|
-----------------------------------------------------------------------------|
-----------------------------------------------------------------------------|
-----------------------------------------------------------------------------|

3x
-----------------------------------------------------------------------------|
---12---15---15b---15---12---------------------------------------------------|
----------------------------14-----------------------------------------------|
-----------------------------------------------------------------------------|
-----------------------------------------------------------------------------|
-----------------------------------------------------------------------------|

19b--19b--19--19b--17--17------17--------------------------------------------|
--------------------------20b-----20b----19--17---15--14--15--17b------------|
-----------------------------------------------------------------------------|
-----------------------------------------------------------------------------|
-----------------------------------------------------------------------------|
-----------------------------------------------------------------------------|

----12h14h15--15h16h18---17h18h20--18--20--21--20----------------------------|
-----------------------------------------------------------------------------|
-----------------------------------------------------------------------------|
-----------------------------------------------------------------------------|
-----------------------------------------------------------------------------|
-----------------------------------------------------------------------------|

-19-19b-19-17-17b-17-15-15b-15-12-15-15b-15-19-15-17--------------------------|
------------------------------------------------------------------------------|
-----------------------------------------------------15b--15--12--------------|
----------------------------------------------------------------14b--14--12---|
---------------------------------------------------------------------------14-|
------------------------------------------------------------------------------|

Outro
Play Until the Song Ends and slide down from 7 on the 6th string

-----------------------------------------------------------------------------|
-----------------------------------------------------------------------------|
-----------------------------------------------------------------------------|
-----------------------------------------------------------------------------|
---------------5-------------------------------------------------------------|
--------------------5-----7----5----7----5-----------------------------------|
Tap to rate this tab
# A B C D E F G H I J K L M N O P Q R S T U V W X Y Z