Song name
# A B C D E F G H I J K L M N O P Q R S T U V W X Y Z

Valley Of Chrome - Dasal tab

Tabbed by: Chino De Chavez
YM batang.sundalo@yahoo.com

Tuning Db Ab Db Gb Bb Eb

Im not 100% sure about this but it sounds pretty close for me.
i can't play this clea tho... heheh


                                
Eb|------------------------------------------------------------------------|
Bb|------------------------------------------------------------------------|
Gb|----14-12-10-12-10-9-10-9----------9-14-12-10-12-10-9-10-9----------9---|
Db|--------------------------12-11-12-------------------------12-11-12-----| 
Ab|------------------------------------------------------------------------|
Db|------------------------------------------------------------------------|

Eb|------------------------------------------------------------------------|
Bb|--------------------------13-11-10-11p10----11p10----10-----------------|
Gb|----14-12-10-12-10-9-10-9----------------12-------12----12-10-12-9------|
Db|------------------------------------------------------------------------| 
Ab|------------------------------------------------------------------------|
Db|------------------------------------------------------------------------|




Eb|------------------------------------------------------------------------|
Bb|------------------------------------------------------------------------|
Gb|----14-12-10-12-10-9-10-9----------9-14-12-10-12-10-9-10-9----------9---|
Db|--------------------------12-11-12-------------------------12-11-12-----| 
Ab|------------------------------------------------------------------------|
Db|------------------------------------------------------------------------|

Eb|------------------------------------------------------------------------|
Bb|--------------------------13-11-10-11p10----11p10----10-----------------|
Gb|----14-12-10-12-10-9-10-9----------------12-------12----12-10-9---------|
Db|------------------------------------------------------------------------| 
Ab|------------------------------------------------------------------------|
Db|------------------------------------------------------------------------|





Eb|------------------------------------------------------------------------|
Bb|------------------------------------------------------------------------|
Gb|----14-12-10-12-10-9-10-9----------9-14-12-10-12-10-9-10-9----------9---|
Db|--------------------------12-11-12-------------------------12-11-12-----| 
Ab|------------------------------------------------------------------------|
Db|------------------------------------------------------------------------|

Eb|------------------------------------------------------------------------|
Bb|--------------------------13-11-10-11p10----11p10----10-----------------|
Gb|----14-12-10-12-10-9-10-9----------------12-------12----12-10-12-9------|
Db|------------------------------------------------------------------------| 
Ab|------------------------------------------------------------------------|
Db|------------------------------------------------------------------------|





Eb|------------------------------------------------------------------------|
Bb|------------------------------------------------------------------------|
Gb|----14-12-10-12-10-9-10-9----------9-14-12-10-12-10-9-10-9----------9---|
Db|--------------------------12-11-12-------------------------12-11-12-----| 
Ab|------------------------------------------------------------------------|
Db|------------------------------------------------------------------------|

Eb|------------------------------------------------------------------------|
Bb|--------------------------13-11-10-11p10----11p10----10-----------------|
Gb|----14-12-10-12-10-9-10-9----------------12-------12----12-10-9---------|
Db|----------------------------------------------------------------12\-----| 
Ab|------------------------------------------------------------------------|
Db|------------------------------------------------------------------------|
Tap to rate this tab
# A B C D E F G H I J K L M N O P Q R S T U V W X Y Z