Song name
# A B C D E F G H I J K L M N O P Q R S T U V W X Y Z

Valley Of Chrome - Cast No Shadow tab

Band: Valley Of Chrome
Song Title: Cast no Shadow
Tuning: Drop D
Intro:GTR 1
e|--------------------------------------|
B|--------------------------------------|
G|-77-777--33-333-----------------------|
D|-77-777--33-333-----------------------|(repeat 14x)
A|-55-555--11-111-----------------------|
D|--------------------------------------|
                     
GTR 2
e|--------------------------------------|
B|--------------------------------------|
G|--------------------------------------|
D|--------------------------------------|(repeat 4x) 
A|-5-7-8-10-8-7-1-3-5-8-7-3-------------|
D|--------------------------------------|

GTR 2
e|--------------------------------------|
B|--------------------------------------|
G|--------------------------------------|
D|-3-5-7-8-7-5-2-3-5-7-5-2--------------|(repeat 2x)
A|--------------------------------------|
D|--------------------------------------|

GTR 2
e|--------------------------------------|
B|--------------------------------------|
G|-77777-9-10--33333-5-2----------------|
D|--------------------------------------|(repeat 4x)
A|--------------------------------------|
D|--------------------------------------|

GTR 1
e|--------------------------------------|
B|--------------------------------------|
G|-77-777~--33-333~---------------------|
D|-77-777~--33-333~---------------------|(repeat 4x)
A|-55-555~--11-111~---------------------|
D|--------------------------------------|

GTR 2
e|--------------------------------------|
B|--------------------------------------|
G|--------------------------------------|
D|--------------------------------------|(repeat 4x) 
A|-5-7-8-10-8-7-1-3-5-8-7-3-------------|
D|--------------------------------------|
(pagdating sa huling note ng guitar 2 sasabayan ng guitar 1 ng tab sa baba)

GTR 1
e|--------------------------------------|
B|--------------------------------------|
G|-7~~~---------------------------------|
D|-7~~~---------------------------------| 
A|-5~~~---------------------------------|
D|--------------------------------------|


GTR 1
e|--------------------------------------|
B|--------------------------------------|
G|-77-777--33-333-----------------------|
D|-77-777--33-333-----------------------|(repeat 2x)
A|-55-555--11-111-----------------------|
D|--------------------------------------|

GTR 2
e|--------------------------------------|
B|--------------------------------------|
G|-777777----7/9-9/10--333333----3-3-5--|
D|-777777--------------333333-----------|(repeat 2x)
A|-555555--------------111111-----------|
D|--------------------------------------|
  (palm mute sa chords tpos ung lead)

kau n bahala sa Iba pa di p kc perfect eh pero 2ng Intro 100% n perfect^_^


Tap to rate this tab
 
# A B C D E F G H I J K L M N O P Q R S T U V W X Y Z