Guitaretab - guitar tabs
Song name
# A B C D E F G H I J K L M N O P Q R S T U V W X Y Z

Valley Of Chrome - Heroes In A Dying Age tab

ahhhm..this is my 1st tab......bhala na kayo magjudge kung tama ung kapa
ko.....npakahirap.....ahmmm nyo ko hah...rhen7_emo@yahoo.com


E]-------------------------------------------------------------------------|
B]-------------------------------------------------------------------------|
G]-------------------------------------------------------------------------|
D]6-6-7-4-6-7/6-6-6-4-2-6----6-7-4-6--------------------------------------|
A]6--------------------------6-------------7-9-6--------------------------|
E]4--------------------------4--------------------------------------------|
[ Tab from: http://www.guitaretab.com/v/valley-of-chrome/73204.html ]
-------------------------------------------------------------------------|
-----------------------------------7/6-6-4-------------------------------|
---6-6-7-4-6-7/6-6-6-4-2-6-6-7-4-6---------7-6---------------------------|
---6---------------------6-----------------------------------------------|
---4---------------------4-----------------------------------------------|

e------------------------------------------------------------------------|
b------------------------------------------------------------------------|
g----------------------------------------7-6-4-4h6-4---------------------|
d-7-6-7-9-7-6-7-----9-7-6/3-5-5/7-9-7-6/7-----------7-6-7----------------|
a---------------9/11-----------------------------------------------------|
e
Related for Heroes In A Dying Age tab