Song name
# A B C D E F G H I J K L M N O P Q R S T U V W X Y Z

Valley Of Chrome - We The Dying tab

im not a hundred percent sure about this tab.. but i feel that this sounds close to the 
just send me a message on friendster for mistakes, here's my add---> wounded.angel_9@yahoo.com

Enjoy.. =)

E|-------------------------------------------|
B|-------------------------------------------|
G|--777--9~--777---9--9~--777--9~------------|
D|--777--9~--777---9--9~--777--9~--33---3----| x4
A|--555--7~--555--11--7~--555--7~-----5---5--|
D|-------------------------------------------|


E|-------------------------------------------|
B|--6-5-7~-5-7-9-8h9-8-7h8-7-6-5-------------|
G|-------------------------------------------|
D|-------------------------------------------|
A|-------------------------------------------|
D|-------------------------------------------|

E|-------------------------------------------|
B|--4-3-4~-3-4-6-5h6-5-4h5-4-3-2-------------|
G|-------------------------------------------|
D|-------------------------------------------|
A|-------------------------------------------|
D|-------------------------------------------|
Tap to rate this tab
# A B C D E F G H I J K L M N O P Q R S T U V W X Y Z