Song name
# A B C D E F G H I J K L M N O P Q R S T U V W X Y Z

Vampire Love Dolls - Acetone tab

VLD's official site http://www.geocities.com/SunsetStrip/Backstage/3044/

Acetone
Vampire Love Dolls
VLD Ep
Tabbed By: J Etan

.:Verse:.
|------------------|
|------------------|
|------------------|
|------------------|
|------------------|
|-0-0-6-5--0--1~---|

.:Pre Chorus:.
|-----------------|
|-----------------|
|-----------------|
|-----------------|
|-8-8-8-8---2---|
|-6-6-6-6---0---|

.:Chorus:.
|--------------------------------|
|--------------------------------|
|--------------------------------|
|--------------------------------|
|-9----8---7-5-------------------|
|-7----6---5-3--0-0-6-5--0--1~---|

.:Interlude:.
ring out for 8 measures
|-0------|
|-0------|
|-0------|
|-2------|
|-2------|
|-0------|

X8
|-------------------------------|
|-------------------------------|
|-------------------------------|
|-2-2-2-2-5-5-5-4-4-4-4-4-4-4-4-|
|-------------------------------|
|-------------------------------|

x4
|-------------------------------|
|-------------------------------|
|-------------------------------|
|-------------------------------|
|-2-2-2-2-5-5-5-4-4-4-4-4-4-4-4-|
|-0-0-0-0-3-3-3-2-2-2-2-2-2-2-2-|

.:OUTLINE:.
Verse
Pre Chorus
Chorus
Verse
Pre Chorus
Chorus
Interlude
Verse
Pre Chorus
Chorus
Tap to rate this tab
# A B C D E F G H I J K L M N O P Q R S T U V W X Y Z