Guitaretab - guitar tabs
Song name
# A B C D E F G H I J K L M N O P Q R S T U V W X Y Z

Vampire Love Dolls - Spinning tab

VLD's official site http://www.geocities.com/SunsetStrip/Backstage/3044/

Spinning
Vampire Love Dolls
VLD Ep
Tabbed by: J Etan

.:Intro:.
|------------------------------|
|------------------------------|
|------------------------------|
|-0--0-0-1--0-0-0--0-0-10-----|
|--------------------------10-|
|------------------------------|
[ Tab from: http://www.guitaretab.com/v/vampire-love-dolls/46443.html ]
.:Verse:.
|-------------------------------------------|
|-------------------------------------------|
|-------------------------------------------|
|-------------------------------------------|
|-5----harmonics-------8----harmonics-------|
|-5----harmonics-------8----harmonics-------|

.:Chorus:.
|-----------------------------|
|-----------------------------|
|-----------------------------|
|-----------------------------|
|-5------8------3------6------|
|-5------8------3------6------|

.:Bridge:.
guitar 1(let ring)
|--------------------|
|--------------------|
|--------------------|
|--------------------|
|-8------------------|
|-6------------------|

.:OUTLINE:.
Intro
Verse
Chorus
Intro
Verse
Chorus
Intro
Bridge
Chorus
Intro
Related for Spinning tab