Guitaretab - guitar tabs
Song name
# A B C D E F G H I J K L M N O P Q R S T U V W X Y Z

Vampire Love Dolls - Angel Lust Extacy tab

VLD's official site http://www.geocities.com/SunsetStrip/Backstage/3044/

Angel Lust Extacy
Vampire Love Dolls
VLD Ep
Tabbed By: J Etan

.:Slide:.     
|--------|
|--------|
|--------|
|--------|
|--------|
|-14-14\-|

.:Verse:. x12
|------------------|
|--------------2--|
|--------------2--|
|-----4------------|
|------------------|
|-2-2---2--2-2-----|

.:2nd Part Verse:. x4
|------------------|
|--------------3--|
|--------------3--|
|-----5------------|
|------------------|
|-3-3---3--3-3-----|

.:Verse:. x4
|------------------|
|--------------2--|
|--------------2--|
|-----4------------|
|------------------|
|-2-2---2--2-2-----|

.:Pre Chorus:.
|---------------------------------|
|---------------------------------|
|---------------------------------|
|-4-4-4-4-4-4-4-5-5-5-5-5-2-2-2-2-|
|-2-2-2-2-2-2-2-2-3-3-3-3-0-0-0-0-|
|---------------------------------|

.:Chorus:.
|------------------|
|--------------2--|
|--------------2--|
|-----4------------|
|------------------|
|-2-2---2--2-2-----|

.:Interlude:. 
(guitar 1)
|---------------------------------0-|
|---------------------------------0-|
|-----------------------------2/3---|
|-4-4-4-2-4-4-5-5-4-4-4-2-4---------|
|-----------------------------------|
|-----------------------------------|
[ Tab from: http://www.guitaretab.com/v/vampire-love-dolls/46444.html ]
(guitar 2)
|------------------------------|
|-7-7-7-5-7-7-8-8-7-7-7-5-7----|
|------------------------------|
|------------------------------|
|------------------------------|
|------------------------------|

.:Solo:.
|-----3-3-----3-3-----3-3-----3-3-|
|-----3-3-----3-3-----3-3-----3-3-|
|-5/6-----5/6-----5/6-----5/6-----|
|---------------------------------|
|---------------------------------|
|---------------------------------|

|------------------------|
|-5-3-5-3-5555-3-----|
|-5-3-5-3-5555-3-----|
|--------------------5~--|
|------------------------|
|------------------------|

|-----2-2--------2-2-----2-------2-2-----2-2-|
|-----2-2--------2-2-----2-------2-2-----2-2-|
|-4/5-----4/5--------4/5---4/5-------4/5-----|
|--------------------------------------------|
|--------------------------------------------|
|--------------------------------------------|

|--------------------|
|-/16-18-16-18~~-18-|
|--------------------|
|--------------------|
|--------------------|
|--------------------|

.:Ending:. x4
|-----------------------------------|
|--------------2-------------------|
|--------------2-------------------|
|-----4----------------4------------|
|-----------------------------------|
|-2-2---2--2-2-----2-2---2-2--------|

.:OUTLINE:.
Verse
2nd Part Verse
Verse
Pre Chorus
Chorus
Verse
2nd Part Verse
Verse
Pre Chorus
Chorus
Interlude
Solo
Pre Chorus
Chorus
Ending
Related for Angel Lust Extacy tab