Guitaretab - guitar tabs
Song name
# A B C D E F G H I J K L M N O P Q R S T U V W X Y Z

Vampire Love Dolls - Cadillac Plastic tab

VLD's official site http://www.geocities.com/SunsetStrip/Backstage/3044/

Cadillac Plastic
Vampire Love Dolls
VLD Ep
Tabbed By: J Etan

.:Slide:.
|--------|
|--------|
|--------|
|--------|
|-2------|
|-0-/12\-|

.:Intro:. x4
|--------------------------|
|--------------------------|
|--------------------------|
|--------------------------|
|-2--2-2-5-2-9-8--8-9--9-5-|
|-0--0-0-3-0-7-6--6-7--7-3-|

.:Verse:.
|----------------------------------------------------------------------|
|----------------------------------------------------------------------|
|----------------------------------------------------------------------|
|----------------------------------------------------------------------|
|-5---4----------------5---4--------------5---4----------------5---4---|
|-3---2----------------3---2--------------3---2----------------3---2---|

.:Pre Chorus:. x2
|---------------------------------|
|---------------------------------|
|---------------------------------|
|---------------------------------|
|-2---2-2---------2---2-2---------|
|-0---0-0--5^3^0--0---0-0--5^3^0--|

.:2nd Type Verse:.
|----------------------|
|----------------------|
|----------------------|
|----------------------|
|-5---4----------------|
|-3---2----------------|

.:Chorus:.
|-----------------------------------|
|-----------------------------------|
|-----------------------------------|
|-----------------------------------|
|-2-2--------------2-2--------------|
|-0-0-3-0-7-6-3----0-0-3-0-7-6-3~---|

.:Solo:.
|-----12-----12---------------------------------------------|
|-16-16-16-16-12-15-17-17-17-12-14-14-14-14-14-12-|
|--------------------------------------14-14-14-14-14-12-|
|-------------------------------------------------------------|
|-------------------------------------------------------------|
|-------------------------------------------------------------|
[ Tab from: http://www.guitaretab.com/v/vampire-love-dolls/46446.html ]
|-------------------------------------------------------|
|-------14---14---14---14-14-14-14-14-12--------|
|-12-14-14---14---14---14-14-14-14-14-12--------|
|--------------------------------------------------14\--|
|-------------------------------------------------------|
|-------------------------------------------------------|

|--------------------------------------------------------------------------------|
|-12-14-1414-14-12-14-14-12-----12-12-----12-12-----12-12-----12-12-----12-12-|
|-12-14-1414-14-12-14-14-12-16-------16-------16-------16-------16-------|
|--------------------------------------------------------------------------------|
|--------------------------------------------------------------------------------|
|--------------------------------------------------------------------------------|

|-15⁄-15~----12-12-12-12-12------------------12-12-----12-12-----12-12-|
|---------15-14-14-14-14-14-12-14-12------12-12-----12-12-----12-12-|
|--------------------------------12-14-12--16-------16-------16-------|
|---------------------------------------------------------------------------|
|---------------------------------------------------------------------------|
|---------------------------------------------------------------------------|

|--------------------------------------------------|
|-17--17--17--15--12--15--15-12-15-12---------|
|-17--17--17--15--12--15--15-12-15-12---------|
|------------------------------------------12-14~--|
|--------------------------------------------------|
|--------------------------------------------------|

.:3rd Typre Verse:.
1st guitar
|-------------------------------------------------|
|-------------------------------------------------|
|-------------------------------------------------|
|-------------------------------------------------|
|-5---4------------------5---4--------------------|
|-3---2------------------3---2--------------------|

2nd guitar
|-15-14----------------15-14------------------|
|-18-17----------------18-17------------------|
|-------------------------------------------------|
|-------------------------------------------------|
|-------------------------------------------------|
|-------------------------------------------------|

.:OUTLINE:.
Intro
Verse
Pre Type Chorus
2nd Verse
Pre Chorus
Chorus
2nd Type verse
Pre Chorus
Chorus
Solo
3rd Type Verse
Pre Chorus
Chorus
Related for Cadillac Plastic tab