Guitaretab - guitar tabs
Song name
# A B C D E F G H I J K L M N O P Q R S T U V W X Y Z

Vampire Weekend - Little Giant tab

-------------------------------------------------------------------------------
			     Little Giant  Vampire Weekend
-------------------------------------------------------------------------------
Tabbed by: Jared Le Doux
Email: lomlonde@gmail.com

Tuning: E-A-D-G-B-E

whole song excluding ending - ending coming later

	Guitar 1:							repeat
[ Tab from: http://www.guitaretab.com/v/vampire-weekend/111151.html ]
e|------7-9----9999------7-9---9999-10-9-7----------------10---9-7----------|
B|---10-----------10----10--------10-------10-9-77----7777-----------10-9-7--|
G|-9-----------------9-----------------------------------7-----------------9-|
D|-------------------------------------------------------------------------9-|
A|---------------------------------------------------------------------------|
E|---------------------------------------------------------------------------|
	Guitar 2:
	First set of seventeens played rapidly				repeat
e|-17-17-17-17-17-17-17---17--17--16-14---12---12-12-12-12---12---14-12------|
B|----------------------------------------------------------------------15---|
G|---------------------------------------------------------------------------|
D|---------------------------------------------------------------------------|
A|---------------------------------------------------------------------------|
E|---------------------------------------------------------------------------|

e|-----------------12--------------------------------------------------------|
B|-14--14--14----14---15-14---12--12--12-------------------------------------|
G|---------------------------------------------------------------------------|
D|---------------------------------------------------------------------------|
A|---------------------------------------------------------------------------|
E|---------------------------------------------------------------------------|


| /  slide up
| \  slide down
| h  hammer-on
| p  pull-off
| ~  vibrato
| +  harmonic
| x  Mute note
===============================================================================
Related for Little Giant tab