Song name
# A B C D E F G H I J K L M N O P Q R S T U V W X Y Z

Vampire Weekend - A-punk Acoustic tab

-------------------------------------------------------------------------------
			     A-Punk Acoustic - Vampire Weekend
-------------------------------------------------------------------------------
Tabbed by:itspizzanight
Email:

Tuning:Capo on fret 2

This is my version of A-punk. All chords are relative to the capo.

Intro and Verses:
    G     F     C
e|---------------------------------------------------------------------------|
B|----33----11--11111111-----------------------------------------------------|
G|--4444--2222--00000000-----------------------------------------------------|
D|--5555--3333--22222222-----------------------------------------------------|
A|--------------33333333-----------------------------------------------------|
E|---------------------------------------------------------------------------|x3
    C	  G     C
e|---------------------------------------------------------------------------|
B|--------------1111---------------------------------------------------------|
G|--0000--0000--0000---------------------------------------------------------|
D|--2222--0000--2222---------------------------------------------------------|
A|--------------3333---------------------------------------------------------|
E|---------------------------------------------------------------------------|x2


Chorus A:
Strum these chords as long as you need to.
e|--0--1--3--0-5---3--1--3--0------------------------------------------------|
B|--1--1--1--1-6---1--1--1--1------------------------------------------------|
G|--0--0--0--0-0---0--0--0--0------------------------------------------------|
D|---------------------------------------------------------------------------|
A|---------------------------------------------------------------------------|
E|---------------------------------------------------------------------------|x3

e|--0--1--3--0--5------------------------------------------------------------|
B|--1--1--1--1--6------------------------------------------------------------|
G|--0--0--0--0--0------------------------------------------------------------|
D|---------------------------------------------------------------------------|
A|---------------------------------------------------------------------------|
E|---------------------------------------------------------------------------|x1

Then the bassy part.
e|---------------------------------------------------------------------------|
B|---------------------------------------------------------------------------|
G|---------------------------------------------------------------------------|
D|-------------232-----------------------------------------------------------|
A|----2----0--3-------2----0-3-----------------------------------------------|
E|--33-3-11-1-------33-3-11-1------------------------------------------------|x1

Chorus B:
Strum these chords as long as you need to.
e|--0--1--3--0-5---3--1--3--0------------------------------------------------|
B|--1--1--1--1-6---1--1--1--1------------------------------------------------|
G|--0--0--0--0-0---0--0--0--0------------------------------------------------|
D|---------------------------------------------------------------------------|
A|---------------------------------------------------------------------------|
E|---------------------------------------------------------------------------|x5

e|--0--1--3--0--5------------------------------------------------------------|
B|--1--1--1--1--6------------------------------------------------------------|
G|--0--0--0--0--0------------------------------------------------------------|
D|---------------------------------------------------------------------------|
A|---------------------------------------------------------------------------|
E|---------------------------------------------------------------------------|x1

Then the bassy part.
e|---------------------------------------------------------------------------|
B|---------------------------------------------------------------------------|
G|---------------------------------------------------------------------------|
D|-------------232-----------------------------------------------------------|
A|----2----0--3-------2----0-3-----------------------------------------------|
E|--33-3-11-1-------33-3-11-1------------------------------------------------|x1


Progression of the song:
Intro x1
verse x2
Chorus A
verse x2
Chorus B


| /  slide up
| \  slide down
| h  hammer-on
| p  pull-off
| ~  vibrato
| +  harmonic
| x  Mute note
===============================================================================
Tap to rate this tab
# A B C D E F G H I J K L M N O P Q R S T U V W X Y Z