Song name
# A B C D E F G H I J K L M N O P Q R S T U V W X Y Z

Vampire Weekend - One Blakes Got A New Face tab

-------------------------------------------------------------------------------
			     One - Vampire Weekend
-------------------------------------------------------------------------------
Tabbed by:willistabs
Email:maxwillis@yahoo.co.uk

Tuning:EADGBE
The intro to the song, short but fun.
e|--------------------------------------------------------------------------|
B|--------------------------------------------------------------------------|
G|----------------5-5-5-5-5-------------------------------------------------|
D|14-14-14-14-14--5-5-5-5-5--12-12-12-12-12--9-9-9-9-9-9-9-9----------------|
A|14-14-14-14-14--3-3-3-3-3--12-12-12-12-12--9-9-9-9-9-9-9-9----------------|
E|12-12-12-12-12-------------10-10-10-10-10--7-7-7-7-7-7-7-7----------------|

| /  slide up
| \  slide down
| h  hammer-on
| p  pull-off
| ~  vibrato
| +  harmonic
| x  Mute note
===============================================================================
Tap to rate this tab
# A B C D E F G H I J K L M N O P Q R S T U V W X Y Z