Song name
# A B C D E F G H I J K L M N O P Q R S T U V W X Y Z

Vampire Weekend - Ottoman tab

-------------------------------------------------------------------------------
			     Ottoman - Vampire Weekend
-------------------------------------------------------------------------------
Tabbed by:pauli
Email:pauli_poo@hotmail.co.uk

Tuning:standard

this is all it is really, not alot of guitar in it.

Intro:
Riff 1 (muted)
e|---12--12--10--10---------------------------------------------------------|
B|-10--10--12--12----12--12--10--10-----------------------------------------|
G|-----------------12--12--11--11-------------------------------------------|
D|--------------------------------------------------------------------------|
A|--------------------------------------------------------------------------|
E|--------------------------------------------------------------------------|

Riff 2 (chord part)
E,D,F#,G,D

e|---523-5-------------------------------------------------------------|
B|---523-5-------------------------------------------------------------|
G|-9-734-7-------------------------------------------------------------|
D|-9-745-7-------------------------------------------------------------|
A|-7-545-5-------------------------------------------------------------|
E|----23---------------------------------------------------------------|

Riff 1
Riff 2

Instrumental
end.

| /  slide up
| \  slide down
| h  hammer-on
| p  pull-off
| ~  vibrato
| +  harmonic
| x  Mute note
===============================================================================
Tap to rate this tab
# A B C D E F G H I J K L M N O P Q R S T U V W X Y Z