Guitaretab - guitar tabs
Song name
# A B C D E F G H I J K L M N O P Q R S T U V W X Y Z

Vampire Weekend - Cousins tab

|---------------------------------------------------------------------------|
|Song: Cousins                                                              |
|Band: Vampire Weekend                                                      |
|Album: Contra                                                              |
|Tabbed By: harrytheblurfan                                                 |
|---------------------------------------------------------------------------|

I've worked out the intro, I'll figure out the rest of the song later.

Intro:

e|-----------------------|--------------------------|
B|----------5------------|----------5-5-5-----------|
G|---1---3--3------------|---1---3--3-3-3-----------|
D|-2---4----4------------|-2---4----4-4-4-----------|
A|-----------------------|--------------------------|
E|-----------------------|--------------------------|

e|-----------------------|--------------------------|
B|----------5------------|----------4---------------|
G|---1---3--3------------|---1---3--3---------------|
D|-2---4----4------------|-2---4----4---------------|
A|-----------------------|--------------------------|
E|-----------------------|--------------------------|

Drums enter:

e|-----------------------|--------------------------|
B|----------5------------|----------5-5-5-----------|
G|---1---3--3------------|---1---3--3-3-3-----------|
D|-2---4----4------------|-2---4----4-4-4-----------|
A|-----------------------|--------------------------|
E|-----------------------|--------------------------|
[ Tab from: http://www.guitaretab.com/v/vampire-weekend/205885.html ]
e|-----------------------|--------------------------|
B|----------5------------|----------4---------------|
G|---1---3--3------------|---1---3--3---------------|
D|-2---4----4------------|-2---4----4---------------|
A|-----------------------|--------------------------|
E|-----------------------|--------------------------|

Chanting enters:

e|-----------------------|--------------------------|
B|----------5------------|----------5-5-5-----------|
G|---1---3--3------------|---1---3--3-3-3-----------|
D|-2---4----4------------|-2---4----4-4-4-----------|
A|-----------------------|--------------------------|
E|-----------------------|--------------------------|

e|-----------------------|--------------------------|
B|----------5------------|----------4---------------|
G|---1---3--3------------|---1---3--3---------------|
D|-2---4----4------------|-2---4----4---------------|
A|-----------------------|--------------------------|
E|-----------------------|--------------------------|

e|-----------------------|--------------------------|
B|----------5------------|----------5-5-5-----------|
G|---1---3--3------------|---1---3--3-3-3-----------|
D|-2---4----4------------|-2---4----4-4-4-----------|
A|-----------------------|--------------------------|
E|-----------------------|--------------------------|

e|-----------------------|--------------------------|
B|----------5------------|----------4---------------|
G|---1---3--3------------|---1---3--3---------------|
D|-2---4----4------------|-2---4----4---------------|
A|-----------------------|--------------------------|
E|-----------------------|--------------------------|

This a new song that will be on their forthcoming album 'Contra'. There's a video for it 
YouTube. Here's the link for: http://www.youtube.com/watch?v=1e0u11rgd9Q

Comment/Correct me if you think there's bits missing. Cheers.
Related for Cousins tab
Cousins chords by Vampire Weekend