Song name
# A B C D E F G H I J K L M N O P Q R S T U V W X Y Z

Vampire Weekend - Giving Up The Gun tab

sorry if its wrong :)




I heard you play guitar

(01:51)
e|-17----------| - Tremolo 
b|-------------|
g|-------------|
d|-------------|
a|-------------|
E|-------------|

down at a seedy bar 

(01:53)
e|-------------| 
b|-------------|
g|-14----------| - Tremolo
d|-------------|
a|-------------|
E|-------------|

where skinheads used to fight


I see you shine in your way
Go on, go on, go on

(02:55)
e|-5-4-0-2-0-----------------9-7-10-10-9-7-5-4-5-9-7-4-5---------------------|- Tremolo each note.
B|-----------3-2-0-0-3-2-----------------------------------------------------|- Tremolo each note.
G|-----------------------1-2-------------------------------------------------|- Tremolo each note.
D|---------------------------------------------------------------------------|
A|---------------------------------------------------------------------------|
E|---------------------------------------------------------------------------|
Tap to rate this tab
# A B C D E F G H I J K L M N O P Q R S T U V W X Y Z