Song name
# A B C D E F G H I J K L M N O P Q R S T U V W X Y Z

Vampire Weekend - The Kids Dont Stand A Chance tab

-------------------------------------------------------------------------------
		The Kids Don't Stand a Chance - Vampire Weekend
-------------------------------------------------------------------------------
Tabbed by: James Keane
Email: james-keane@hotmail.com

First tab, but I think it's pretty accurate. I noticed when watching this
song live on YouTube that Ezra plays it on the low frets but most tabs on 
here have it played fairly high. Anyway this is my stab at the best song on VW's first album.

Chorus:

e|-4---2--1-----4---2--1------------1-------1---1--4--2--1-------------------|
B|---------4--2----------4-2----2-----4--2-----------------4-2-----2-1-2-----|
G|----------------------------3--------------------------------3-------------|
D|---------------------------------------------------------------------------|
A|---------------------------------------------------------------------------|
E|---------------------------------------------------------------------------|

Solo at the end, all tremolo picked

e|---3--7--8--10--12--13--12--10--8------------------------------------------|
B|-----------------------------------8--5--8--6--5--3--5--6--5--3--1---------|
G|---------------------------------------------------------------------------|
D|---------------------------------------------------------------------------|
A|---------------------------------------------------------------------------|
E|---------------------------------------------------------------------------|

Tap to rate this tab
 
# A B C D E F G H I J K L M N O P Q R S T U V W X Y Z