Song name
# A B C D E F G H I J K L M N O P Q R S T U V W X Y Z

Vampire Weekend - Campus tab

-----------------------------------------------------------------------------
			     CAMPUS - VAMPIRE WEEKEND
-----------------------------------------------------------------------------
Tabbed by: Hunter Clark
Email: hclarc@gmail.com

Tuning: Standard

e|-10-10-10-10-10-10-10-10-12-12-12-12-12-12-12-12--------------------------|
B|-12-12-12-12-10-10-10-10-13-13-13-13-13-13-13-13--------------------------|
G|-12-12-12-12-10-10-10-10-14-14-14-14-14-14-14-14--------------------------|
D|--------------------------------------------------------------------------|
A|--------------------------------------------------------------------------|
E|--------------------------------------------------------------------------|

e|-10-10-10-10-10-10-10-10-12-12-12-12-12-12-12-12--------------------------|
B|-12-12-12-12-10-10-10-10-13-13-13-13-13-13-13-13--------------------------|
G|-12-12-12-12-10-10-10-10-14-14-14-14-14-14-14-14--------------------------|
D|--------------------------------------------------------------------------|
A|--------------------------------------------------------------------------|
E|--------------------------------------------------------------------------|

e|-10-10-10-10-10-10-10-10-12-12-12-12-12-12-12-12--------------------------|
B|-12-12-12-12-10-10-10-10-13-13-13-13-13-13-13-13--------------------------|
G|-12-12-12-12-10-10-10-10-14-14-14-14-14-14-14-14--------------------------|
D|--------------------------------------------------------------------------|
A|--------------------------------------------------------------------------|
E|--------------------------------------------------------------------------|

e|-10-10-10-10-10-10-10-10-12-12-12-12-12-12-12-12--------------------------|
B|-12-12-12-12-10-10-10-10-13-13-13-13-13-13-13-13--------------------------|
G|-12-12-12-12-10-10-10-10-14-14-14-14-14-14-14-14--------------------------|
D|--------------------------------------------------------------------------|
A|--------------------------------------------------------------------------|
E|--------------------------------------------------------------------------|

e|--------------------------------------------------------------------------|
B|----5--3--5-----5--3--5---------------------------------------------------|
G|-4--5--3--5--4--5--3--5---------------------------------------------------|
D|-5--4--2--4--5--4--2--4---------------------------------------------------|
A|-5--5--3--5--5--5--3--5---------------------------------------------------|
E|-3-----------3------------------------------------------------------------|

e|-10-10-10-10-10-10-10-10-12-12-12-12-12-12-12-12--------------------------|
B|-12-12-12-12-10-10-10-10-13-13-13-13-13-13-13-13--------------------------|
G|-12-12-12-12-10-10-10-10-14-14-14-14-14-14-14-14--------------------------|
D|--------------------------------------------------------------------------|
A|--------------------------------------------------------------------------|
E|--------------------------------------------------------------------------|

e|-10-10-10-10-10-10-10-10-12-12-12-12-12-12-12-12--------------------------|
B|-12-12-12-12-10-10-10-10-13-13-13-13-13-13-13-13--------------------------|
G|-12-12-12-12-10-10-10-10-14-14-14-14-14-14-14-14--------------------------|
D|--------------------------------------------------------------------------|
A|--------------------------------------------------------------------------|
E|--------------------------------------------------------------------------|

e|-10-10-10-10-10-10-10-10-12-12-12-12-12-12-12-12--------------------------|
B|-12-12-12-12-10-10-10-10-13-13-13-13-13-13-13-13--------------------------|
G|-12-12-12-12-10-10-10-10-14-14-14-14-14-14-14-14--------------------------|
D|--------------------------------------------------------------------------|
A|--------------------------------------------------------------------------|
E|--------------------------------------------------------------------------|

e|-10-10-10-10-10-10-10-10-12-12-12-12-12-12-12-12--------------------------|
B|-12-12-12-12-10-10-10-10-13-13-13-13-13-13-13-13--------------------------|
G|-12-12-12-12-10-10-10-10-14-14-14-14-14-14-14-14--------------------------|
D|--------------------------------------------------------------------------|
A|--------------------------------------------------------------------------|
E|--------------------------------------------------------------------------|

e|-10-10-10-10-10-10-10-10-12-12-12-12-12-12-12-12-14-14-14-14-14-14-14-14--|
B|-12-12-12-12-12-12-12-12-13-13-13-13-13-13-13-13-15-15-15-15-15-15-15-15--|
G|-12-12-12-12-12-12-12-12-14-14-14-14-14-14-14-14-16-16-16-16-16-16-16-16--|
D|--------------------------------------------------------------------------|
A|--------------------------------------------------------------------------|
E|--------------------------------------------------------------------------|

e|-10-10-10-10-10-10-10-10-|
B|-12-12-12-12-12-12-12-12-|
G|-12-12-12-12-12-12-12-12-|
D|-------------------------|
A|-------------------------|
E|-------------------------|

e|-10-10-10-10-10-10-10-10-12-12-12-12-12-12-12-12-14-14-14-14-14-14-14-14--|
B|-12-12-12-12-12-12-12-12-13-13-13-13-13-13-13-13-15-15-15-15-15-15-15-15--|
G|-12-12-12-12-12-12-12-12-14-14-14-14-14-14-14-14-16-16-16-16-16-16-16-16--|
D|--------------------------------------------------------------------------|
A|--------------------------------------------------------------------------|
E|--------------------------------------------------------------------------|

e|-10-10-10-10-10-10-10-10-|
B|-12-12-12-12-12-12-12-12-|
G|-12-12-12-12-12-12-12-12-|
D|-------------------------|
A|-------------------------|
E|-------------------------|

e|-10-10-10-10-10-10-10-10-12-12-12-12-12-12-12-12-14-14-14-14-14-14-14-14--|
B|-12-12-12-12-12-12-12-12-13-13-13-13-13-13-13-13-15-15-15-15-15-15-15-15--|
G|-12-12-12-12-12-12-12-12-14-14-14-14-14-14-14-14-16-16-16-16-16-16-16-16--|
D|--------------------------------------------------------------------------|
A|--------------------------------------------------------------------------|
E|--------------------------------------------------------------------------|

e|-10-10-10-10-10-10-10-10-|
B|-12-12-12-12-12-12-12-12-|
G|-12-12-12-12-12-12-12-12-|
D|-------------------------|
A|-------------------------|
E|-------------------------|

e|-10-10-10-10-10-10-10-10-12-12-12-12-12-12-12-12-14-14-14-14-14-14-14-14--|
B|-12-12-12-12-12-12-12-12-13-13-13-13-13-13-13-13-15-15-15-15-15-15-15-15--|
G|-12-12-12-12-12-12-12-12-14-14-14-14-14-14-14-14-16-16-16-16-16-16-16-16--|
D|--------------------------------------------------------------------------|
A|--------------------------------------------------------------------------|
E|--------------------------------------------------------------------------|

e|-10-10-10-10-10-10-10-10-|
B|-12-12-12-12-12-12-12-12-|
G|-12-12-12-12-12-12-12-12-|
D|-------------------------|
A|-------------------------|
E|-------------------------|

e|-10-10-10-10-10-10-10-10-12-12-12-12-12-12-12-12-14-14-14-14-14-14-14-14--|
B|-12-12-12-12-12-12-12-12-13-13-13-13-13-13-13-13-15-15-15-15-15-15-15-15--|
G|-12-12-12-12-12-12-12-12-14-14-14-14-14-14-14-14-16-16-16-16-16-16-16-16--|
D|--------------------------------------------------------------------------|
A|--------------------------------------------------------------------------|
E|--------------------------------------------------------------------------|

e|-15(tremelo)-17(tremelo)-19(tremelo)--------------------------------------|
B|--------------------------------------------------------------------------|
G|--------------------------------------------------------------------------|
D|--------------------------------------------------------------------------|
A|--------------------------------------------------------------------------|
E|--------------------------------------------------------------------------|
Tap to rate this tab
 
# A B C D E F G H I J K L M N O P Q R S T U V W X Y Z