Song name
# A B C D E F G H I J K L M N O P Q R S T U V W X Y Z

Vampire Weekend - Step tab

-----------------------------------------------------------------------------
                             Step - Vampire Weekend
-----------------------------------------------------------------------------
Tabbed by: milessanders
E-mail:thegreatmdog@yahoo.com

Alright, everything is tabbed except for the bass. I broke it up into 2 guitar parts and 
the background synth. Let me know what you think.

Tuning:Standard

Guitar I
0:06, 1:02
    Bb              Bbmaj7          Gm              F
e|--------10------10------10------10------10------10------8-------8--|
B|----11------11------10------10------11------11------10------10-----|
G|--10--10--10--10--10--10--10--10--12--12--12--12--10--10--10--10---|
D|-------------------------------------------------------------------|
A|-------------------------------------------------------------------|
E|-------------------------------------------------------------------|
Eb                  Bb              Eb              F
e|--------6-------6-------6-------6-------6-------6-------8-------8--|
B|----8-------8-------6-------6-------8-------8-------10------10-----|
G|--8---8---8---8---7---7---7---7---8---8---8---8---10--10--10--10---|
D|-------------------------------------------------------------------|
A|-------------------------------------------------------------------|
E|-------------------------------------------------------------------|

1:39
    Bb              Bbmaj7          Gm              F
e|--------10--------------10--------------10--------------8-----------|
B|----11------11--11--10------10--10--11------11--11--10------10--10--|
G|--10--10--10--10--10--10--10--10--12--12--12--12--10--10--10--10----|
D|--------------------------------------------------------------------|
A|--------------------------------------------------------------------|
E|--------------------------------------------------------------------|
Eb                  Bb              Eb              F
e|--------6---------------6---------------6---------------8-----------|
B|----8-------8---8---6-------6---6---8-------8---8---10------10--10--|
G|--8---8---8---8---7---7---7---7---8---8---8---8---10--10--10--10----|
D|--------------------------------------------------------------------|
A|--------------------------------------------------------------------|
E|--------------------------------------------------------------------|

2:03
    Bb              Bbmaj7          Gm              F
e|----10--10------10--10--10------10--10--10------10--8---8-------8--|
B|------------11--------------10--------------11--------------10-----|
G|--10--10--10--10--10--10--10--10--12--12--12--12--10--10--10--10---|
D|-------------------------------------------------------------------|
A|-------------------------------------------------------------------|
E|-------------------------------------------------------------------|
Eb                  Bb              Eb              F
e|----6---6-------6---6---6-------6---6---6-------6---8---8-------8--|
B|------------8---------------6---------------8---------------10-----|
G|--8---8---8---8---7---7---7---7---8---8---8---8---10--10--10--10---|
D|-------------------------------------------------------------------|
A|-------------------------------------------------------------------|
E|-------------------------------------------------------------------|

2:28
    Bb              Bbmaj7          Gm              F
e|------------10--------------10--------------10--------------8-------|
B|----11--11------11--10--10------10--11--11------11--10--10------10--|
G|--10--10--10--10--10--10--10--10--12--12--12--12--10--10--10--10----|
D|--------------------------------------------------------------------|
A|--------------------------------------------------------------------|
E|--------------------------------------------------------------------|
Eb                  Bb              Eb              F
e|------------6---------------6---------------6---------------8-------|
B|----8---8-------8---6---6-------6---8---8-------8---10--10------10--|
G|--8---8---8---8---7---7---7---7---8---8---8---8---10--10--10--10----|
D|--------------------------------------------------------------------|
A|--------------------------------------------------------------------|
E|--------------------------------------------------------------------|

2:53
    Bb              Bbmaj7          Gm              F
e|------------10--------------10--------------10--------------8-------|
B|----11--11------11--10--10------10--11--11------11--10--10------10--|
G|--10--10--10--10--10--10--10--10--12--12--12--12--10--10--10--10----|
D|--------------------------------------------------------------------|
A|--------------------------------------------------------------------|
E|--------------------------------------------------------------------|
Eb                  Bb              Eb              F
e|------------6---------------6-----6-------6-------8-------8---------|
B|----8---8-------8---6---6-------6---8---8---8---8---10--10--10--10--|
G|--8---8---8---8---7---7---7---7-------8-------8-------10------10----|
D|--------------------------------------------------------------------|
A|--------------------------------------------------------------------|
E|--------------------------------------------------------------------|

Guitar II
0:06
e|------10----10----10----10----8-----8-----10----|
B|--11----10--------------------------------------|
G|--------------12----10----8-----7-----8-----10--|
D|------------------------------------------------|
A|------------------------------------------------|
E|------------------------------------------------|

e|---------10-11--10-13--10-11--10----8-----8-----10--------|
B|--10-11-----------------------------------------------10--|
G|--------------------------------8-----7-----8-----10------|
D|----------------------------------------------------------|
A|----------------------------------------------------------|
E|----------------------------------------------------------|

0:43, 1:51
e|----------------------------------|
B|--11--10--------------------------|
G|----------12--10--8---7---8---10--|
D|----------------------------------|
A|----------------------------------|
E|----------------------------------|

1:32
e|--11--------------|
B|------11--13--10--|
G|------------------|
D|------------------|
A|------------------|
E|------------------|

2:28
e|-----10----10----10----8-----6-----5-----8---------|
B|--11----10-------------------------------------10--|
G|--------------12----10----8-----7-----8-----10-----|
D|---------------------------------------------------|
A|---------------------------------------------------|
E|---------------------------------------------------|

2:40
e|----10--10--10--10--10--10--10--10--10--10--10--10--8---8---8---8--|
B|-------------------------------------------------------------------|
G|--10--10--10--10--10--10--10--10--12--12--12--12--10--10--10--10---|
D|-------------------------------------------------------------------|
A|-------------------------------------------------------------------|
E|-------------------------------------------------------------------|

e|----6---6---6---6---6---6---6---6---6---6---6---6---8---8---8---8--|
B|-------------------------------------------------------------------|
G|--8---8---8---8---7---7---7---7---8---8---8---8---10--10--10--10---|
D|-------------------------------------------------------------------|
A|-------------------------------------------------------------------|
E|-------------------------------------------------------------------|

e|----10--10--10--10--10--10--10--10--10--10--10--10--8---8---8---8--|
B|--11--11--11--11--10--10--10--10--11--11--11--11--10-10--10--10----|
G|-------------------------------------------------------------------|
D|-------------------------------------------------------------------|
A|-------------------------------------------------------------------|
E|-------------------------------------------------------------------|

e|----6---6---6---6---6---6---6---6---6---6---6---6---8---8---8---8--|
B|--8---8---8---8---6---6---6---6---8---8---8---8---10--10--10--10---|
G|-------------------------------------------------------------------|
D|-------------------------------------------------------------------|
A|-------------------------------------------------------------------|
E|-------------------------------------------------------------------|

3:29
e|-------------------------------------------------------------------|
B|-------------------------------------------------------------------|
G|-------------------------------------------------------------------|
D|--8---8---7---7---8---8---7---7---5---5---3---3---5---5---7---7----|
A|----8---8---8---8--10--10---8---8---6---6---5---5---6---6---8---8--|
E|-------------------------------------------------------------------|

Synth
0:06, 1:02, 3:29
e|------------------------------------------10--11--13--10----------|
B|--11--10--------------------------11--13------------------13--10--|
G|----------12--10--8---7---8---10----------------------------------|
D|------------------------------------------------------------------|
A|------------------------------------------------------------------|
E|------------------------------------------------------------------|

4:00
e|----------------------|
B|----------------------|
G|--8---7---8---2---3---|
D|----------------------|
A|----------------------|
E|----------------------|
Tap to rate this tab
 
# A B C D E F G H I J K L M N O P Q R S T U V W X Y Z