Song name
# A B C D E F G H I J K L M N O P Q R S T U V W X Y Z

Vampire Weekend - Cape Cod Kwassa Kwassa tab

Intro & Verse 1:
e|---------------------------------------------|
B|---------------------------------------------|
G|11-11--12-12--12-----------------------------|
D|12-12--14-14--12-11-9h11p9-7--9---11----12---| x 12
A|-------------------------------10---12--12---|
E|---------------------------------------------|

Chorus:
e|---------------------|
B|---------------------|
G|---------------------|
D|9---11----12---------| x 8
A|10----12--12---------|
E|---------------------|

e|---------------------|
B|---------------------|
G|7-----9------9-------|
D|9-----11-----12------|
A|10----12-----12------|
E|---------------------|

e|9---9---11---11------|
B|-10--10---12---12----|
G|---9---9----11---11--|
D|---------------------|
A|---------------------|
E|---------------------|

Verse 2:
e|---------------------------------------------|
B|---------------------------------------------|
G|11-11--12-12--12-----------------------------|
D|12-12--14-14--12-11-9h11p9-7--9---11----12---| x 7
A|-------------------------------10---12--12---|
E|---------------------------------------------|

Chorus:
e|---------------------|
B|---------------------|
G|---------------------|
D|9---11----12---------| x 8
A|10----12--12---------|
E|---------------------|

e|---------------------|
B|---------------------|
G|7-----9------9-------|
D|9-----11-----12------|
A|10----12-----12------|
E|---------------------|

e|9---9---11---11------|
B|-10--10---12---12----|
G|---9---9----11---11--|
D|---------------------|
A|---------------------|
E|---------------------|

Little breakdown thing:
e|---------------------------------------------|
B|---------------------------------------------|
G|11-11--12-12--12-----------------------------|
D|12-12--14-14--12-11-9h11p9-7--9---11----12---|
A|-------------------------------10---12--12---|
E|---------------------------------------------|

Chorus & Ending:
e|---------------------|
B|---------------------|
G|---------------------|
D|9---11----12---------| x 12
A|10----12--12---------|
E|---------------------|

Let know know how this sounds. I went off of ear which is obviously what a lot of people 
But yeah feedback would be great.
-Jaybles

AIM: Heyimjb
Tap to rate this tab
# A B C D E F G H I J K L M N O P Q R S T U V W X Y Z