Song name
# A B C D E F G H I J K L M N O P Q R S T U V W X Y Z

Van Gogh - Neko Te Ima tab

Neko te ima - Van Gogh

-----------------------------------------------|I
-----------------------------------------------|I
----7---7sd------2--2h0------------------------|I
---------------------------2-------------------|I
------------7sd--------------------------------|I
-0---------------------------------------------|I

-----------------------------------------------|I
-----------------------------------------------|I
----7---7h9------2--2--2h-3---2h3h2h32---------|I
------------------------------------------2----|I
------------7sd--------------------------------|I
-0-------------------------------------3-------|I


CHORUS:
Em        C     D
  Neko te ima no?as
Em       C   D
neko te voli
Tap to rate this tab
 
# A B C D E F G H I J K L M N O P Q R S T U V W X Y Z