Song name
# A B C D E F G H I J K L M N O P Q R S T U V W X Y Z

Van Gogh - Tragovi Proslosti tab

van gogh
tragovi proslosti	
tabed by scepa




  theme
  Gm               Gm               Dm               Dm
E|----------------|----------------|----------------|----------------|
H|----------------|----------------|----------------|----------------|
G|------------3---|(3)-------------|------------10--|(10)------------|
D|--------5-------|----3-h-5---3---|----12----------|--------12------|
A|----5-----------|----------------|/12-----12------|----12------12\-|
E|3---------------|----------------|----------------|----------------|
  Gm               Gm               Csus4            Csus4
E|----------------|----------------|----------------|----------------|
H|----------------|----------------|6---------------|(6)-------------|
G|------------3---|(3)-------------|5---------------|(5)-------------|
D|--------5-------|----3-h-5---3---|5---------------|(5)-------------|
A|----5-----------|----------------|3---------------|(3)-------------|
E|3---------------|----------------|----------------|----------------|

verse
  Csus4       C    C                    Csus4   C    C
E|----------------|----------------|----------------|----------------|
H|6-----------5---|5---------------|----6-------5---|5---------------|
G|5-----------5---|5---------------|----5-------5---|5---------------|
D|5-----------5---|5---------------|----5-------5---|5---------------|
A|3-----------3---|3---------------|----3-------3---|3---------------|
E|----------------|----------------|----------------|----------------|
  Dsus4       D    D                    Dsus4   D    D
E|----------------|----------------|----------------|----------------|
H|8-----------7---|7---------------|----8-------7---|7---------------|
G|7-----------7---|7---------------|----7-------7---|7---------------|
D|7-----------7---|7---------------|----7-------7---|7---------------|
A|5-----------5---|5---------------|----5-------5---|5---------------|
E|----------------|----------------|----------------|----------------|


Gm
Bez kraja put
         F**
Na njemu sam
Gm      B       D
I dalje hocu da znam

Gde vodi san
O kakav dan
I dalje hocu da znam

chorus
Gm
Uuu, tragovi proslosti
        Dis  F*
u meni, o o, o o
Gm
Uuu, noci bez
B        F
Noci bez jutra

Zbog niskog neba
Povijam glavu
Avet slobode iz balkanskih suma

Na vratima raja
Savijam krila
Bog i prosjak od rata do rata

used chords
Gm -355333
F  -133211
F* -X85765
F**-X 8 10 10 10 8
B  -X13331
D  -X57775
Dis-X63543


:)
Tap to rate this tab
# A B C D E F G H I J K L M N O P Q R S T U V W X Y Z