Song name
# A B C D E F G H I J K L M N O P Q R S T U V W X Y Z

Van Halen - Year To The Day tab

Year to the Day
Van Halen
from Van Halen III

E|-------7--8----8---------8--------7----------7-7h8p7---5-----------------------|
B|----10--------------------------------------------------------6--5p3-----------|
G|--9------------5-------5---5------7-------7------------5--------------5---(5)/-|
D|--------------------7---------7-------5--------------------3-------------------|
A|-------------------------------------------------------------------------------|
E|-------------------------------------------------------------------------------|


E|----------7--8----8------10----7----------8-----10--8p7--5-----------------|
B|-------10------------------------------------------------------6--5p3------|
G|-----9------------5---------------------7----------------5--------------5--|
D|---x-------------------7----5--5-----5----------------------3--------------|
A|-x-------------------------------------------------------------------------|
E|---------------------------------------------------------------------------|


E|-------5--11/12---17---11p10--8-(8)\---8--8p5--(5)/-------|
B|-----5------------17---10-----8-(8)\---5--5----(5)/-------|
G|---5------8/9---------------------------------------------|
D|-7--------------------------------------------------------|
A|----------------------------------------------------------|
E|----------------------------------------------------------|
Tap to rate this tab
 
# A B C D E F G H I J K L M N O P Q R S T U V W X Y Z