Song name
# A B C D E F G H I J K L M N O P Q R S T U V W X Y Z

Van Halen - In N Out tab

Help us improve GuitareTab! Take a short survey!
Van Halen
In'N'Out
from For Unlawful Carnal Knowledge


    B~~~~~~~~~~~~                           ~~~~~~~~  H quickdive      P
|--15--------------------------------------12----------------------------------17-------|
|-------------------13------------------10----------10-13------10----13-10--------17----|
|----------------14----14--------(14)----------------------------11---------------------|
|---------------------------------------------------------------------------------------|
|---------------------------------------------------------------------------------------|
|---------------------------------------------------------------------------------------|

   B~~~~~~~~~~~~~~~ P  H  P      B                   B P             B   B   B  B   B
--20------------(20)-17-20-17--------17-----------------------------22--22--22--22--22--20-|
---------------------------------20-----17-20----17-----------17---------------------------|
----------------------------------------------19----19--17-19----17------------------------|
-------------------------------------------------------------------------------------------|
-------------------------------------------------------------------------------------------|
-------------------------------------------------------------------------------------------|

      ~~~~~~~~~~~~       B   B       P [tapped harm.................]    T P H  T P  P
--22-20-----------------------------------------------------------------------------------|
-------------------------------------------------------------------------10-5-8-10-8---5--|
---------------------5-7-7-7-5----(5)--7(12)-7(14)-7(12)-7(14)-7(12)----------------------|
-------------------7----------------------------------------------------------------------|
------------------------------------------------------------------------------------------|
------------------------------------------------------------------------------------------|

  B  T  P P H          B B               H  P  ~~~~~~~~ harm w/slow dive
--------------------------------------------------------------------------------|
----------------5------7--------------------------------------------------------|
--7--12-7--5-7----5----7-5------------------------------5-----------------------|
--------------------7--------------7---5--7--5----------------------------------|
-------------------------------------7---------5--------------------------------|
--------------------------------------------------------------------------------|

            B~~~~~~~~         ~~     P   ~~     P
|--------------------------------------------------------5----8----12---|
|-----------7--------------------------------------------6----8----13---|
|-----------7---------------------------------------2----5--------------|
|--2------------------2----------2----------2-------0-------------------|
|--0------------------0----------0--3-0-----0--3-0----------------------|
|-----------------------------3----------3------------------------------|

        ~~   			                P
-------------------------------|   |--------------------|
----------------------------8--|   |-------8---------7--|
----------------------------7--|   |-----9-----9-7---7--| 4x
---2-------2--------2-------6--|   |--7------------7----|
---0-------0--------0-------7--|   |--------------------|
--------3-----3--------3-0-----|   |--------------------|

		P			      P
|---------------------------|    |--------------------|
|---------13------------12--|    |-------8---------7--|
|------14-----14-12-----12--| x2 |-----9-----9-7---7--| x2
|--12---------------12------|    |--7------------7----|
|---------------------------|    |--------------------|
|---------------------------|    |--------------------|

				   P		       P
|----------------------------------------------------------------------|
|-----------------------------8---------7---------8----------7-7-7-----|
|--7-7--8-8--3-3--5-5-------9-----9-7---7-------9-----9-7----7-7-7--2--|
|--7-7--8-8--3-3--5-5----7------------7------7------------7---------2--|
|--7-7--8-8--1-1--3-3-----------------------------------------------0--|
|----------------------------------------------------------------------|
Related for In N Out tab