Song name
# A B C D E F G H I J K L M N O P Q R S T U V W X Y Z

Van Halen - Tora Tora tab

Tora! Tora!     This is a good tab please rate and comment.
            T Tap

e----------------------------------------------------------------|
b-9--------------------------------------------------------------|
g-9--------------------------------------------------------------|
d-9--------------------------------------------------------------|
a-7------8----7-----------7--8--10-8-10-8-12-8-10-12-8-10-12-7-8-|
e-0----7--------7--0----7----------------------------------------|
                                          T       T       T


e--------------------------------------------------------------------|
b-9------------------------------------------------------------------|
g-9------------------------------------------------------------------|
d-9----------3-------------------------------------------------------|
a-7----------3-----------------7-8--10-8-10-8-12-8-10-12-8-10-12-7-8-|
e-0----7-----1------7b--0b---7---------------------------------------|
                                              T       T       T

e------------------------------------------------------------------|
b-----------10-----------------------------------10---9------------|
g-9---------10-----------7-9-7-9-7/16-----7--8--------9-----10-----|
d-9---------10----------------------------------------9-----10-----|
a-7---------8-------3/--------------------------------7-----8------|
e-0------7--------------------------------------------0--7---------|


e----------------------------------------------------------|
b----------------------------------------------------------|
g---------------9------------------------------------------|
d---------------9------------------------------------------|
a-8-10-8\7-8----7------7---8-10-8----6---------------------|
e---------------0----7-------------------------------------|


                Segue to Loss Of Control
Tap to rate this tab
# A B C D E F G H I J K L M N O P Q R S T U V W X Y Z