Song name
# A B C D E F G H I J K L M N O P Q R S T U V W X Y Z

Van Halen - Hang Em High tab

Hang 'em High
                          From the album Diver Down

V = push trem. bar down
b = bend up, then down
p = pull off
h = hammer on

E-----------------------------------------------------------|
B-----------------------------------------------------------|
G-----------------------------------------------------------|
D--------7---------7--------7--------7--------7--7----------|
A-----------------------------------------------------------|
E---7-------7--7------7--7-----7--7-----7--7----------------|

E-----------------------------------------------------------|
B-----------------------------------------------------------|
G-----------------------------------------------------------|
D---------7--------7--------7--------7-------7--7-----------|
A---0--0-----0--0-----0--0-----0--0-----0--0----------------|
E-----------------------------------------------------------|

E-----------------------------------------------------------|
B-----------------------------------------------------------|
G-----------------------------------------------------------|
D---------7--------7--------7--------7--------7--7----------|
A-----------------------------------------------------------|
E---7--7-----7--7-----7--7-----7--7-----7--7----------------|

E-----------------------------------------------------------|
B-----------------------------------------------------------|
G---------------------------*-------------------------------|
D---------7--------7--------7-----(7)/12--------------------|
A---0--0-----0--0-----0--0----------------------------------|
E-----------------------------------------------------------|
                        * artificial harmonic

E-----------------------------------------------------------|
B-----------------------------------------------------------|
G-----------------------------------------------------------|
D--------7---------7--------7--------7--------7--7----------|
A-----------------------------------------------------------|
E---7-------7--7------7--7-----7--7-----7--7----------------|

                                               *
E------------------------------------------*--9.6--------------|
B-----------------------------------------9.6------------------|
G--------------------------------------------------------------|
D---------7--------7---------7----(7)/9------------------------|
A---0--0--------0------0--0------------------------------------|
E--------------------------------------------------------------|
                                        * natural harmonics

E---9p7----11p7----9p7-------7----------7--------------------------------------|
B---7---7-------7------10p7----10p7-------7------------------------------------|
G-----------------------------------h9------9b-(9)p7h9-(9)b(9)V--7-9--(9)V--7--|
D------------------------------------------------------------------------------|
A------------------------------------------------------------------------------|
E------------------------------------------------------------------------------|

E-----------------------------------------------------------|
B-----------------------------------------------------------|
G---7-----9-----------7------4----2-------------------------|
D---7-----9-----------7------4----2---(2)/4-----------------|
A---5-----7-----------5---0--2----0-------------------------|
E------0--------0--0----------------------------------------|

E-----------------------------------------------------------------|
B-----------------------------------------------------------------|
G---------7-----9-------------7-----4--------2--------------------|
D---------7-----9-------------7-----4--------2--(2)/4-------------|
A---------5-----7---(7)VVV----5--0--2---0-0--0--------------------|
E---0--0-----0------------------------------------------10--------|

E---------------------------3-------------------------------|
B-------3----------------3-----3----------------------------|
G---------2-----------0----------0--0-----------------------|
D---0-------4-----------------------------------------------|
A------------------3----------------------------------------|
E-----------------------------------------------------------|

E-----------------------------------------------------------|
B-----------------------------------------------------------|
G-------9--------------9---------------7--------------------|
D----------9---9----------9--------7---------5--------------|
A---7--------------6-----------5----------3------/10--------|
E-----------------------------------------------------------|
Tap to rate this tab
# A B C D E F G H I J K L M N O P Q R S T U V W X Y Z