Guitaretab - guitar tabs
Song name
# A B C D E F G H I J K L M N O P Q R S T U V W X Y Z

Van Halen - Man On A Mission tab

Man on a Mission

  |-----------------------tap w/right hand------------------->
|---------------------------------------------------------------------------------------|
|---------------------------------------------------------------------------------------|
|----------18------------------18------------------18------------------18---------------|
|------17------17----------17------17----------17------17----------17------17-----------|
|--16--------------16--16--------------16--16--------------16--16--------------16-------|
|-------------------------------------------------------------------------------------3-|


       P      P    P      P    P      P  H       P     P     P     P    P   P     P  H
|-----------------------------------------------------------------------------------------|
|-----------------------------------------------------------------------------------------|
|-----------------------------------------------------------------------------------------|
|--------------------------------------------2-------------------------------------------2|
|-----------------------------------5--0--2--------------------------------------5--0--2--|
|--0--3--0--5--0--3--0--6--0--7--0--------------0--3--0--5--0--3--0--6--0--7--0-----------|

        P    P     P        ~~~~~                       P     P     P     P     P     P
|-----------------------------------------------------------------------------------------|
|-----------------------------------------------------------------------------------------|
|-----------------------------------10--7--------2----------------------------------------|
|-----------------------------------10--7--5--2--2-----------------------------------5--0-|
|------------------------------------8--5--5--2--0--0--3--0--5--0--3--0--6--0--7--0-------|
|--0--3--0--5--0--3--0--5--3---------------3--0-------------------------------------------|
                                                   add random AH in with riff
[ Tab from: http://www.guitaretab.com/v/van-halen/169074.html ]
  H        P     P     P          P  P      ~~~~~         ~~~~~    P  P     P     P
|-----------------------------------------------------------------------------------------|
|---------------------------------------------------------7-------------------------------|
|------------------------------------------------2--7--5-------5--------------------------|
|--2-----------------------0---------------------2----------------7--5--0--5--0-----------|
|-----0--3--0--5--0--3--0-----3/5--3--0--5-------0-------------------------------3--0--5--|
|-------------------------------------------3---------------------------------------------|

    ~~~~      PM    PM           PM      PM     PM   
|-------||-----8-----8--5--5-------8-------8-----5--5----8-8-8-8--5--7-7-7-5--4-4--5--|
|-------||-----8-----8--5--7-------8-------8-----5--7----8-8-8-8--5--8-8-8-6--5-5--5--|
|-------||--7-----7-----5--5--7-7-----7-7-----7--5--5-------------5--7-7---5--4-4-----|
|-------||----------------------------------------------------------------------------|
|-------||----------------------------------------------------------------------------|
|--3----||----------------------------------------------------------------------------|

                 P     H     H     H              B P B P    P
|----------------------------------------------------------------------|
|-------------------------------------------------7-5-7-5--------------|
|--------------------------------------------7----7-5-7-5--7--5-----2--|
|--------2-----------------------------------7-------------------7--2--|
|--0-----0--0--------------3--5-----------3--5----------------------0--|
|-----3--------3--0--3--5--------0--3--5-------------------------------|

        H     H           P        P        P          trem~~~~~~~~~~~
|----------------------------------------------------------------------8--5---|
|--------------------3--------3--------3--------3----------------------8--5---|
|--------------------2--------2--------2--------2-----------------------------|
|--------------------0--------0--------0--------0-----0-----------------------|
|-----------3--5--------3--0-----3--0-----3--0-----3--------------------------|
|--0--3--5--------3-----------------------------------------------------------|
Related for Man On A Mission tab
Advertisement will be closed in 10 seconds