Guitaretab - guitar tabs
Song name
# A B C D E F G H I J K L M N O P Q R S T U V W X Y Z

Van Halen - Push Comes To Shove tab

Van Halen
Push Comes to Shove
from Fair Warning

Intro (volume swells)

---------------------------------------------------------------------------|
--10------------/12---12/10-----13\12---10/12\10-------12/10-----/13\12----|
---------------------------------------------------------------------------|
--10------------/12---12/10-----14\12---10/12\10-------12/10-----/14\12----|
---------------------------------------------------------------------------|
---------------------------------------------------------------------------|

---------------------------------------------------------------------------|
--10------------/12---12/10-----13\12---10/12\10-------12/10-----/13\12----|
---------------------------------------------------------------------------|
--10------------/12---12/10-----14\12---10/12\10-------12/10-----/14\12----|
---------------------------------------------------------------------------|
---------------------------------------------------------------------------|

-------------------------------------------------------------------------------|
--10------------/12---12/10-----13\12---10/12\10-------12/10-----/13-----12----|
-------------------------------------------------------------------------------|
--10------------/12---12/10-----14\12---10/12\10-------12/10-----/14-----12----|
-------------------------------------------------------------------------------|
-------------------------------------------------------------------------------|
[ Tab from: http://www.guitaretab.com/v/van-halen/169077.html ]
Main riff during verse
                                                PM-------------------|
---5-5---5-5----5----------------10-10---10-10-----------------------|
---5-5---5-5----5------x/--------10-10---10-10-----------------------|
---------5------5------x/----------------10-10-----------------------|
-----------------------x/--------------------------------------------|
-------------------------------------------------8--8-7-8-8/10\--0---|
---------------------------------------------------------------------|

---5-5-----------------------------10-10---10-10-----x-x-12-10-10-10---|
---5-5-------------5-5--5----------10-10---10-10-----x-x-10-10-10-10---|
---5-5-------------5-5--5------------------10-10-----------------------|
-----------------------------------------------------------------------|
--------3--2--0--------------------------------------------------------|
---------------------------5/10----------------------------------------|

Chorus riff (w/ flanger and delay A.H.
---------------------------------------------------------------------------|
------------------------5/6-------5---6--6/8---6---5-----------------5--6--|
---7-------7(19)--------------7------------------------7---------7-7-------|
---------------------------------------------------------------------------|
---------------------------------------------------------------------------|
---------------------------------------------------------------------------|

--------------------------------------------------------------------------------|
---------5---5--6--6/8----8------------13p10----10h11----18p17-17--17---17--15--|
---7-------------------------------10--------10----------17----17--17---17--15--|
-------------------------------7/8----------------------------------------------|
--------------------------------------------------------------------------------|
--------------------------------------------------------------------------------|

----------------------------------------------------------------------------|
---5--------------------13p10-----10h11----18p17--17---17\15----15-----15---|
-----5--------------10--------10-----------17-----17---17\15----15-----15---|
-------8--5----7\8----------------------------------------------15-----15---|
----------------------------------------------------------------------------|
----------------------------------------------------------------------------|
Related for Push Comes To Shove tab
Advertisement will be closed in 10 seconds