Song name
# A B C D E F G H I J K L M N O P Q R S T U V W X Y Z

Van Halen - The Seventh Seal tab

The Seventh Seal
Van Halen
from Balance

intro chords (also in the rest of the song)

e------0-----0---0---0--|----0---0---0---0---0---0--|
B------7----10--10--10--|---12--12--12--12--12--12--|
G-----------------------|---------------------------|
D------9----12--12--12--|---14--14--14--14--14--14--|
A-----------------------|---------------------------|
E-----------------------|---------------------------|

e--0-----0----0--0--0--|--0----0--0---0---0----0---0---0---|
B--7----10----5--5--5--|--5----3--3---7--10---10--10--10---|
G----------------------|-----------------------------------|
D--9----12----7--7--7--|--7----5--5---9--12---12--12--12---|
A----------------------|-----------------------------------|
E----------------------|-----------------------------------|

e---0---0---0-----0--|--0---0----0---0--0---|
B--12--12--12-----5--|--7--10----5---5--5---|
G--------------------|----------------------|
D--14--14--14-----7--|--9--12----7---7--7---|
A--------------------|----------------------|
E--------------------|----------------------|

e--0--------------------------------|
B--3/5\3/5\3/5\3--------------------|
G-----------------------------------|
D--5/7\5/7\5/7\5--------------------|
A-----------------------------------|
E-----------------------------------|

Verse Riff

e-------------------------------------|
B-------------------------------------|
G-------------------------------------|
D--9----------------------9------9----|
A--5^7--7-7-7-7-7---7--7--5---7--5----|
E-------------------------------------|

     PM ------|           PM
e----------------5-5----------------------------|
B----------------5-5--7-7-7-7-------------------|
G---------------------7-7-7-7-------------------|
D--9-------------9-9--7-7-7-7-------------------|
A--5^7--7-7-7-7---------------------------------|
E-----------------------------------------------|

e-----------------------------------|--------------------------|
B-----------------------------------|--------------------------|
G-----------------------------------|-----------------------2--|
D--9--------------------9---------9-|-9----9--9--2--2-2--2--2--|
A--5^7-7-7-7-7-7----7-7-5-----7---5-|-5^7--7--7--5--5-5--4--0--|
E-----------------------------------|--------------------------|

       PM------|             PM



thats it. sometimes he uses a flanger for the last bar of the verse

riff, makes a very cool descending run
Tap to rate this tab
# A B C D E F G H I J K L M N O P Q R S T U V W X Y Z