Song name
# A B C D E F G H I J K L M N O P Q R S T U V W X Y Z

Van Halen - Fast Movment tab

        Eddie Van Halen 
|-----------------------------------------------------------------------|
|--------------------------------------6-0---------8-0------------------|
|--------------------5-0----------5-0------9-7-0-------11-9-11----------|
|--------5-7-7-7-7-7-----7-7-7-(7)----8----------10---------------------|
|----/7-----------------------------------------------------------------|
|-----------------------------------------------------------------------|
Playing Continued   

|-----------------------------------------------------------------------|
|-----------------------------------------------------------------------|
|------------------------------------------5-0----------7-0-6-4-6-------|
|-----------------------5-0---------5-0--------9-7-0--------------------|
|---------5-7-7-7-7-(7)-----7-7-7-7------7-----------9------------------|
|--/7-------------------------------------------------------------------|
Tap to rate this tab
 
# A B C D E F G H I J K L M N O P Q R S T U V W X Y Z