Song name
# A B C D E F G H I J K L M N O P Q R S T U V W X Y Z

Van Halen - Running With The Devil tab

Running With The Devil - Van Halen

This is the solo to this great song. It is the easiest solo by Eddie
Tuning: Half Step Down

|---------|----------------------------------------|               
|---------|14-15-17-15-15^14-------14--------------|
|------14-|------------------14------14---------12-|
|--7/14---|---------------------14-----14--5/12----|
|---------|----------------------------------------|
|---------|----------------------------------------|

|----------------------------------------|
|-12-13-15-13-13^12------12--------------|
|------------------12------12---------14-|
|--------------------12------12---7/14---|
|----------------------------------------|
|----------------------------------------|

                       
|-------------------17^-----17-17---17--------|
|-14-15-17-15-15^14------------------------12-|
|---------------------------------------------|
|---------------------------------------------|
|---------------------------------------------|
|---------------------------------------------|


|--------------14--15--16--------------------|
|-12/13-15^13--15--16--17--------------------|
|--------------------------------------------|
|--------------------------------------------|
|--------------------------------------------|
|--------------------------------------------|
Tap to rate this tab
# A B C D E F G H I J K L M N O P Q R S T U V W X Y Z