Song name
# A B C D E F G H I J K L M N O P Q R S T U V W X Y Z

Van Halen - Eyes Of The Night tab

EYES OF THE NIGHT
Van Halen,Unreleased Compilation.
tabbed by dsale@jax.jaxnet.com

OK the the other tab i posted was WRONG WRONG WRONG.
I heard a slide he did and realized the whole thing was at another part of
the fretboard,so,oh well.Here it is.A little more revised,but still just
the intro.:)
Anyone else wanna add parts,just add to this tab and state that you tabbed
whatever else before your tab begins,and re-upload it back to nevada.edu,
they'll just replace it.
oh yeah,i didnt tab the MUTEs or anything,just listen to the song.Have its
feel in you before you try to play it.


w/MXR-Phase 90

------------------------------------------------------------------------|
------------------------------------------------------------------------|
------------------------------------------------------------------------|
------------------------------------------------------------------------|
---5h7--7/9--7--9-----10--9--8--8/9\7-----7-----------------7-----9-----|
0-----------------------------------------------0--0--7--9--------------|

------------------------------------------------------------------------|
------------------------------------------------------------------------|
------------------------------------------------------------------------|
------9--8--------------------------------------------------------------|
9/11-----------------5h7--7/9--7--9-----10--9--8--8/9\7--7--------------|
------------------0-----------------------------------------0--0--7-----|

------------------------------------------------------------------------|
------------------------------------------------------------------------|
------------------------------------------------------------------------|
---------------9--8--8--7--7-----6p7p6----------------------------------|
---7--9--9/11---------------------------7--6--6\---0h1--1--1-----5------|
9-------------------------------------------------------------0---------|

------------------------------------------------------------------------|
--------------------------------------------------12------------12------|
-------------------------------------------11p12---------12p11----------|
------------------------------------------------------------------------|
h7-----7/9--7--9-----10p9--10---/12p15p14-------------------------------|
------------------------------------------------------0-----------------|

-------10---------------------------------------------------------------|
12\10------10-----10------------12-------------15-----------------------|
11\9-----------9---------12p11-------------14-----------------12p11-----|
---------------------------------------14-------------------------------|
------------------------------------------------------------------------|
----------------------0----------------------------x--7\---0------------|

-----------10-----------------------------------------------------------|
12--12\10------10-----10------------12----------15---\(21)--------------|
----11\9-----------9---------12p11----------14--------------------------|
----------------------------------------14------------------------------|
------------------------------------------------------------------------|
--------------------------0----------------------------------\---0------|


                                                  |harmonics-------------|
-----------------10-----10--------------------------------12-------------|
-----------9\10--10-----------------------------------12-----------------|
---------------------9----------------------------12-------------5-------|
-------------------------------5h7p5--------------------------5----------|
9p7-----------------------------------7--5-------------------------------|
--------------------------------------------0----------------------------|


                (basically,repeat,here is some stuff
                 he adds in.)
---------------------------------------------------|
                  (pick harmonics------------------|
---------------|-----------------------------------|
5-----5--5-----|-----------------------------------|
---5-----------|--2~~~--0--2--2--2--2--2--2--2^----|
---------------|-----------------------------------|
---------------|-----------------------------------|
---------------|-----------------------------------|


        harmonics--------------------|
7/14p0----------12-------------------|
-------------12---------5-----5--7---|
--------12----------5-----5-----7----|
-------------------------------------|
-------------------------------------|
-------------------------------------|

------------------------------------------------------------------------|
----------5h3h0h5h3h0h5h3h0h5h3h0---------------------------------------|
3h0--------------------------------2^-----------------------------------|
-----2h0----------------------------------------------------------------|
------------------------------------------------------------------------|
------------------------------------------------------------------------|


0-----0-----0--------0-------0-----0--------0-----0-----0-----0---------|
---3-----3-----3--3-----0h2-----2-----2--2-----2-----8-----8-----8------|
-----------------------------------------------------9-----9-----9------|
------------------------------------------------------------------------|
------------------------------------------------------------------------|
------------------------------------------------------------------------|

---0-----0------0------0----------0--0-/0---0---0---0-------------------|
8-----8-----10-----10-----10--10-----10-12--12--12--12------------------|
9-----9-----11-----11-----11--11-----11-13--13------13------------------|
------------------------------------------------------------------------|
------------------------------------------------------------------------|
------------------------------------------------------------------------|
Tap to rate this tab
# A B C D E F G H I J K L M N O P Q R S T U V W X Y Z