Song name
# A B C D E F G H I J K L M N O P Q R S T U V W X Y Z

Van Halen - Feel Your Love tab

       I haven't seen much Van halen on this site, so I thought that i should post a tab.


Key:
()=hold note/string
~ =vibrato
/=slide up to folling chord/note

     Intro

e----------------------------------------||
B----------------------------------------||
G----------------------------------------||
D---------6~--------------4~-------------||
A---------7~----5---4-----5~--4---2------||
E---3-4------0----0---0-0---0---0--------||
 repeat until verse starts



     Verse

e------------------------------------||
B---------(3)--------------(3)-------||
G--(2)----(2)--------(2)---(2)-------||
D--(2)----(2)--------(2)---(2)-------||
A--(0)---------------(0)-------------||
E--------------3-4-------------------||

     Chorus

e-------------------------------------||
B-------------------------------------||
G-----------------------------7/9-----||
D--6~----------------4~-------7/9-----||
A--7~----5----4------5~---4---5/7-----||
E------0----0---0-0-----0-------------||

     Pre-Chorus

e-----------------------------------------||
B-----------------------------------------||
G--2-2----2-----2-2----2-----4/16---------||
D--2-2-4--2-----2-2-4--2-----4/16---------||
A--0-0-0--0--0--0-0-0--0--0--2/14---------||
E-----------------------------------------||

  Sorry, I Know they're out of order but I 
 was in a hurry.
      *Later*
Tap to rate this tab
# A B C D E F G H I J K L M N O P Q R S T U V W X Y Z