Song name
# A B C D E F G H I J K L M N O P Q R S T U V W X Y Z

Van Halen - You Really Got Me tab

-5--5--5---5-----5--5--5-----5--5--5-----5---------------------|
-5--5--5---5-----5--5--5-----5--5--5-----5---------------------|
---------------7-----------7----------7------7--7--7--5----7---|
---------------------------------------------------------------|
---------------------------------------------------------------|
---------------------------------------------------------------|

----------------------------------------------------------------|
-10--5----8---10---5----8---10---5---8----10---5---8--10--5---4-|
----------------------------------------------------------------|
----------------------------------------------------------------|
----------------------------------------------------------------|
----------------------------------------------------------------|

---------------------------------------------------------------|
-10--7--4----10--7--4--3----10---6--3---10--6--3---10--2-------|
----------------------------------------------------------4--4-|
---------------------------------------------------------------|
---------------------------------------------------------------|
---------------------------------------------------------------|


       Let ring.
-----------------------------------17---------------------------|
---------------------------------------20---20--20b-20b-20b-20--|b
---4---9----9----4---4--2----2--18------------------------------|
----------------------------------------------------------------|
----------------------------------------------------------------|
----------------------------------------------------------------|

-17-------------17---------------------------------------------|
----20-20-20-20-----20--17-----17------------------------------|
----------------------------19----19--19-19----14-17-17--17-17-|
---------------------------------------------16----------------|
---------------------------------------------------------------|
---------------------------------------------------------------|

----------------------------------------------------------------|
-17-17-17--17-17b-17b--17b----15-17--17-17-17-17---17-17--17-17-|
----------------------------------------------------------------|
----------------------------------------------------------------|
----------------------------------------------------------------|
----------------------------------------------------------------|

-------------------------------9--------------------------------|
----------------------------------------------------------------|
-9-9-9-9--9-9-9-9--9----9----9-----9-----9-----9---9-9--9--9-9--|
----------------------------------------------------------------|
----------------------------------------------------------------|
----------------------------------------------------------------|


   pick slide                          wah~~~~~~~~~~~~~~~~~~~~~~~
----------------------------------------------------------------|
-x--------------------------------------------------------------|
-x--------------------------------------------------------------|
-x--------------------------------------------------------------|
----------------------------------------------------------------|
------------------------------------15--------------------------|
Tap to rate this tab
# A B C D E F G H I J K L M N O P Q R S T U V W X Y Z