Song name
# A B C D E F G H I J K L M N O P Q R S T U V W X Y Z

Van Halen - Drop Dead Legs tab

Van Halen - Drop Dead Legs intro
Mauro Barberis
maurotyler2@gmail.com

Hi there, I've come up with the intro after listening it for a while, this is what 
I've heard, comments more than welcome.

e|-x----------------2-----------------x-|
B|-2-2-----2-----2--3-------5-----3---2-|
G|-2---2-----2------2-----------------2-|
D|-2-----2-----2----4---4/6---6\4---4-2-|
A|--------------------------------------|
E|--------------------------------------|

e|-------------2--------------------x-|
B|------2---2--3-3-----5-----3------2-|
G|-------------2--------------------2-|
D|--1/2---2----4---4/6---6\4------4-2-|
A|------------------------------------|
E|------------------------------------|

e|--------------0----------| x--------------------------0------------ |
B|------2-----2-1---2------|.3-------------3------------3------------.|
G|--------------2-----2----| 2-------------0------------0----------2- |
D|--1/2---2h3---3-------2--| 0-------0-----2--------5-4-0----------2- |
A|------------------------4|.----0-3---3~~-3--0-2-3-----2--0-2-3---0-.|
E|-------------------------| ------------------------------------3--- |
Tap to rate this tab
 
# A B C D E F G H I J K L M N O P Q R S T U V W X Y Z