Song name
# A B C D E F G H I J K L M N O P Q R S T U V W X Y Z

Van Halen - When Its Love tab

HI , this is my first tab ever,  hope you like it.   I searched the intro for this song 
the internet, but they were all too ...   let's say that they weren't romantic enough, 
I modified it. ...  After all , isn't that what the song is all about ??

you can either play it in standar tunning or half step down , sounds great in  both ways.

please rate


Intro

e|--------2---3--5--------------------------------2---3--5-----------------|
B|--------3---3--3-----5------7--8--10------8-----3---3--3----5-----7--8-10|
G|--------2---2--2-----6--6---7--7--7-------7--7--2---2--2----6--6--7--7-7-|
D|--------0---0--0--------7--------------------7--0---0--0-------7---------|
A|------------------0-------------------10------------------0--------------|
E|-------------------------------------------------------------------------|

e|----------------2---3--5---5---------------------------------------------|
B|------8---------3---3--3------5---5------7--8-10-----8-------------------|
G|------7--7------2---2--2------6---6-6----7--7-7------7--7----------------|
D|---------7--7---0---0--0------------7-7-----------------7--7-------------|
A|--10--------9--------------0----------9----------10--------9-------------|
E|-------------------------------------------------------------------------|

e|---2---3--5---5--------------------------------3--------3-3----------3---|
B|---3---3--3------5-------7--8-10------8--------3-3------3-3-3--------3---|
G|---2---2--2---5--6-6-----7--7-7-------7-7--------4-4--------4-4----------|
D|---0---0--0--------7-7------------------7-7--------5----------5----------|
A|---------------------9------------10------9------------------------------|
E|-------------------------------------------------------------------------|

e|--------------------------|
B|--------------------------|
G|--------------------------|
D|--------------------------|
A|--------------------------|
E|---3---1-3------1-3-1-3---|

( play this part as if you were playing bass , looks cooler xD)
Tap to rate this tab
# A B C D E F G H I J K L M N O P Q R S T U V W X Y Z