Song name
# A B C D E F G H I J K L M N O P Q R S T U V W X Y Z

Van Halen - Unchained tab

Van Halen
Unchained
Fair Warning

Tune down half step and the low Eb to Db. It's a dropped Db Tuning.
Intro
Play 4 times
   D                     Bb          C         D                  F                C
Eb----------------------------P----------P----------------------------------------------|
Bb-7---8-----------------3---4^3-----5--6^5----7---8--------------10---11--10------10--8|
Gb-7---7-----------------3---3-------5---------7---7--------------10---10--10------10--9|
Db-7---7-----------------3---3-------5---------7---7--------------10-----------10-----10|
Ab-5---5---------------------------------------5---5---------------8--------------------|
Db--------0--0--0--0--0-----------0---------0---------0--0--0--0------------------------|

1st, 2nd Verse
2 times = 1 Verse
 D5                     Bb/D           C/D           D5                      F/D
-----------------------------------------------------------------------------------------
-----------------------------------------------------------------------------------10--10
---------------------------------3------5------------------------------------------------
-----------------------------3-------------5---------------------------------5/10--------
-3-----5-----3---------/5----------5/7---------------3------5-----3b1/4-------sl.--------
----------0------0--0--sl.---------sl.-------0---0-------------0-------0--0--------------

      C/D
--------------|
------8-------|
---------9----|
-10-----------|
--------------|
------------X-|

Pre-Chorus
G5                                  G5/F                                      A5
-----------------------------------------------------------------------------------------
----------------------sl.sl.--------------------------------------sl.sl.-----------------
-7------7-------------7\5/7---------------------7----7------------7\5/7-------------9----
-5---5--5-------5--5--5\3/5-------------X---X---5----5------5--5--5\3/5-------7--7--7--7-
------------5-----------------5------3--X---X-----------5----------------3/7-------------
------------5-----------------5------3--X---X-----------3----------------3/7-------------
   Harm--|     Harm-|                                      Harm-|             Harm.  Harm

                       A5/G                   A5    Ab5  G5    F5
-----------------------------------------------------------------|
-------------sl.sl.----------------------------------------------|
-9-----------9\7/9--------------9-----9--------------------------|
-7-----------7\5/7-----------7--7-----7--------------------------|
----7--7--7--------7---5--7--------------5-----7-----6----5----3-|
----7--7--7--------7---5-----------------5-----7-----6----5----3-|
       Harm.              Harm.

Chorus
It's the same as the Intro.

Guitar Solo
N.C.
   trem bar 2.5
---------------------------T-P-H-T-P-H-T-P-T-P-P-------------------P-------P-------P-----
---------------------------8-3-6-8-3-6-8-6-8-6-3-----------------18-15---18-15---18-15---
-5----------------3-----3-------------------------5b1/2----3--5--------------------------
-----------------------------------------------------------------------------------------
-----------------------------------------------------------------------------------------
-----------------------------------------------------------------------------------------
Harm.            Harm.

----------------------------------------------------------------------------17-----------
------------------------------------------------P--------17--------sl.sl.------20-20bFull
-17b1/2----17bFull------17---18---19---19b1/2-19-17---------18----18\14/18---------------
----------------------------------------------------19-----------------------------------
-----------------------------------------------------------------------------------------
-----------------------------------------------------------------------------------------

------19----15----17----20----19--20--19--20bFull-|
-17-----------------------------------------------|
--------------------------------------------------|
--------------------------------------------------|
--------------------------------------------------|
--------------------------------------------------|
Tap to rate this tab
# A B C D E F G H I J K L M N O P Q R S T U V W X Y Z