Song name
# A B C D E F G H I J K L M N O P Q R S T U V W X Y Z

Van Halen - Runnin With The Devil tab

Van Halen - Runnin’ with the devil

Tab:
	Chorus 1
E	|-----------------|------------------|
B	|-4s6~~~~~~~~~~~~~|-6s8-10s8~~~~~8\--|
G	|-4s6~~~~~~~~~~~~~|-6s8-10s8~~~~~8\--|
D	|-4s6~~~~~~~~~~~~~|-6s8-10s8~~~~~8\--|
A	|-2s4~~~~~~~~~~~~~|-4s6-10s6~~~~~6\--|
E	|-----------------|------------------|
Time	|-1-e-2-e-3-e-4-e-|-1-e--2-e-3-e-4-e-|

	Verse 1
|-----------------|-----------------|-----------------|------------15-18--|
|-----------------|-----------------|-----------------|------15-18~~------|
|-----------------|-----------------|-----------------|-------------------|
|-6-4-6-----4-----|---1-------------|-6-4-6-----4-----|---1---------------|
|-6-4-6-----4-----|---1-------4-----|-6-4-6-----4-----|---1---------------|
|-----------------|-----------4-----|-----------------|-------------------|
|-1-e-2-e-3-e-4-e-|-1-e-2-e-3-e-4-e-|-1-e-2-e-3-e-4-e-|-1-e-2-e--3-e--4-e-|

|-----------------|-----------------|-----------------|-----------------|
|-----------------|-----------------|-----------------|-----------------|
|-----------------|-----------------|-----------------|---1-------------|
|-6-4-6-----4-----|---1-------------|-6-4-6-----4-----|---1-------------|
|-6-4-6-----4-----|---1-------4-----|-6-4-6-----4-----|---1-------------|
|-----------------|-----------4-----|-----------------|-----------------|
|-1-e-2-e-3-e-4-e-|-1-e-2-e-3-e-4-e-|-1-e-2-e-3-e-4-e-|-1-e-2-e-3-e-4-e-|

Chorus 2
|-----------------|------------------|
|-4s6~~~~~~~~~~~~~|-6s8-10s8~~~~~8\--|
|-4s6~~~~~~~~~~~~~|-6s8-10s8~~~~~8\--|
|-4s6~~~~~~~~~~~~~|-6s8-10s8~~~~~8\--|
|-2s4~~~~~~~~~~~~~|-4s6-10s6~~~~~6\--|
|-----------------|------------------|
|-1-e-2-e-3-e-4-e-|-1-e--2-e-3-e-4-e-|

Verse 2
|-----------------|---------------|-----------------|----------------------|
|-----------------|---------------|-----------------|----------------------|
|-----------------|---------------|-----------------|----------5h7p5h7p5h7-|
|-6-4-6-----4-----|---1-----------|-6-4-6-----4-----|---1------------------|
|-6-4-6-----4-----|---1-------4---|-6-4-6-----4-----|---1------------------|
|-----------------|-----------4---|-----------------|----------------------|
|-1-e-2-e-3-e-4-e-|-1-e-2-e-3-e-4-|-1-e-2-e-3-e-4-e-|-1-e-2-e--3--e--4--e--|

|-----------------|-----------------|-----------------|-----------------|
|-----------------|-----------------|-----------------|-----------------|
|-----------------|-----------------|-----------------|---1-------------|
|-6-4-6-----4-----|---1-------------|-6-4-6-----4-----|---1-------4-----|
|-6-4-6-----4-----|---1-------4-----|-6-4-6-----4-----|---1-------4-----|
|-----------------|-----------4-----|-----------------|-----------------|
|-1-e-2-e-3-e-4-e-|-1-e-2-e-3-e-4-e-|-1-e-2-e-3-e-4-e-|-1-e-2-e-3-e-4-e-|

Chorus 3
|-----------------|------------------|
|-4s6~~~~~~~~~~~~~|-6s8-10s8~~~~~8\--|
|-4s6~~~~~~~~~~~~~|-6s8-10s8~~~~~8\--|
|-4s6~~~~~~~~~~~~~|-6s8-10s8~~~~~8\--|
|-2s4~~~~~~~~~~~~~|-4s6-10s6~~~~~6\--|
|-----------------|------------------|
|-1-e-2-e-3-e-4-e-|-1-e--2-e-3-e-4-e-|

	Solo 1
 Guitar 1
|---------141614-14-14------|---------12-14-12--12-12------|
|----141617----17-17-1714---|---12-1415-------15-15---1512-|
|---------------------------|------------------------------|
|---------------------------|------------------------------|
|---------------------------|------------------------------|
|---------------------------|------------------------------|
|--1-e----2---e----3--e-4-e-|--1-e----2---e---3----e---4-e-|

 Guitar 2
|----------------------------|-----------------------------|
|-8~~~~~~~~~~~~~~~~~~~~~~~~~~|-6~~~~~~~~~~~~~~~~~~~~~~~~~~~|
|-8~~~~~~~~~~~~~~~~~~~~~~~~~~|-6~~~~~~~~~~~~~~~~~~~~~~~~~~~|
|-8~~~~~~~~~~~~~~~~~~~~~~~~~~|-6~~~~~~~~~~~~~~~~~~~~~~~~~~~|
|-6~~~~~~~~~~~~~~~~~~~~~~~~~~|-4~~~~~~~~~~~~~~~~~~~~~~~~~~~|
|----------------------------|-----------------------------|
|--1-e----2--e----3--e---4-e-|--1-e---2---e---3----e---4-e-|

 Guitar 1
|---------141614-1416b17171714-|---------12-12--14--15-----|
|----141617----17--------------|---12-1415--12--14--15-----|
|------------------------------|---------------------------|
|------------------------------|---------------------------|
|------------------------------|---------------------------|
|------------------------------|---------------------------|
|--1-e----2---e------3--e-4-e--|--1-e----2---e---3---e-4-e-|

 Guitar 2
|------------------------------|---------------------------|
|-8~~~~~~~~~~~~~~~~~~~~~~~~~~~~|-6~~~~~~~~~~~~~~~~~~~~~~~~~|
|-8~~~~~~~~~~~~~~~~~~~~~~~~~~~~|-6~~~~~~~~~~~~~~~~~~~~~~~~~|
|-8~~~~~~~~~~~~~~~~~~~~~~~~~~~~|-6~~~~~~~~~~~~~~~~~~~~~~~~~|
|-6~~~~~~~~~~~~~~~~~~~~~~~~~~~~|-4~~~~~~~~~~~~~~~~~~~~~~~~~|
|------------------------------|---------------------------|
|--1-e----2---e------3--e-4-e--|--1-e----2---e---3---e-4-e-|

Chorus 4
|-----------------|------------------|
|-4s6~~~~~~~~~~~~~|-6s8-10s8~~~~~8\--|
|-4s6~~~~~~~~~~~~~|-6s8-10s8~~~~~8\--|
|-4s6~~~~~~~~~~~~~|-6s8-10s8~~~~~8\--|
|-2s4~~~~~~~~~~~~~|-4s6-10s6~~~~~6\--|
|-----------------|------------------|
|-1-e-2-e-3-e-4-e-|-1-e--2-e-3-e-4-e-|

Verse 3
|-----------------|-----------------|-----------------|-------20-------2022|
|-----------------|-----------------|-----------------|---------22201920---|
|-----------------|-----------------|-----------------|--------------------|
|-6-4-6-----4-----|---1-------------|-6-4-6-----4-----|---1----------------|
|-6-4-6-----4-----|---1-------4-----|-6-4-6-----4-----|---1----------------|
|-----------------|-----------4-----|-----------------|--------------------|
|-1-e-2-e-3-e-4-e-|-1-e-2-e-3-e-4-e-|-1-e-2-e-3-e-4-e-|-1-e-2-e-3--e--4--e=|

|-----------------|-----------------|-----------------|-----------------|
|-----------------|-----------------|-----------------|-----------------|
|-----------------|-----------------|-----------------|---1-------------|
|-6-4-6-----4-----|---1-------------|-6-4-6-----4-----|---1-------4-----|
|-6-4-6-----4-----|---1-------4-----|-6-4-6-----4-----|---1-------4-----|
|-----------------|-----------4-----|-----------------|-----------------|
|-1-e-2-e-3-e-4-e-|-1-e-2-e-3-e-4-e-|-1-e-2-e-3-e-4-e-|-1-e-2-e-3-e-4-e-|

Chorus 5
|-----------------|------------------|
|-4s6~~~~~~~~~~~~~|-6s8-10s8~~~~~8\--|
|-4s6~~~~~~~~~~~~~|-6s8-10s8~~~~~8\--|
|-4s6~~~~~~~~~~~~~|-6s8-10s8~~~~~8\--|
|-2s4~~~~~~~~~~~~~|-4s6-10s6~~~~~6\--|
|-----------------|------------------|
|-1-e-2-e-3-e-4-e-|-1-e--2-e-3-e-4-e-|

	Solo 2
 Guitar 1
|---------141614-14-14------|---------12-14-12--12-12------|
|----141617----17-17-1714---|---12-1415-------15-15---1512-|
|---------------------------|------------------------------|
|---------------------------|------------------------------|
|---------------------------|------------------------------|
|---------------------------|------------------------------|
|--1-e----2---e----3--e-4-e-|--1-e----2---e---3----e---4-e-|

 Guitar 2
|----------------------------|-----------------------------|
|-8~~~~~~~~~~~~~~~~~~~~~~~~~~|-6~~~~~~~~~~~~~~~~~~~~~~~~~~~|
|-8~~~~~~~~~~~~~~~~~~~~~~~~~~|-6~~~~~~~~~~~~~~~~~~~~~~~~~~~|
|-8~~~~~~~~~~~~~~~~~~~~~~~~~~|-6~~~~~~~~~~~~~~~~~~~~~~~~~~~|
|-6~~~~~~~~~~~~~~~~~~~~~~~~~~|-4~~~~~~~~~~~~~~~~~~~~~~~~~~~|
|----------------------------|-----------------------------|
|--1-e----2--e----3--e---4-e-|--1-e---2---e---3----e---4-e-|

 Guitar 1
|---------141614-1416b17171714-|---------12-12--14--15-----|
|----141617----17--------------|---12-1415--12--14--15-----|
|------------------------------|---------------------------|
|------------------------------|---------------------------|
|------------------------------|---------------------------|
|------------------------------|---------------------------|
|--1-e----2---e------3--e-4-e--|--1-e----2---e---3---e-4-e-|

 Guitar 2
|------------------------------|---------------------------|
|-8~~~~~~~~~~~~~~~~~~~~~~~~~~~~|-6~~~~~~~~~~~~~~~~~~~~~~~~~|
|-8~~~~~~~~~~~~~~~~~~~~~~~~~~~~|-6~~~~~~~~~~~~~~~~~~~~~~~~~|
|-8~~~~~~~~~~~~~~~~~~~~~~~~~~~~|-6~~~~~~~~~~~~~~~~~~~~~~~~~|
|-6~~~~~~~~~~~~~~~~~~~~~~~~~~~~|-4~~~~~~~~~~~~~~~~~~~~~~~~~|
|------------------------------|---------------------------|
|--1-e----2---e------3--e-4-e--|--1-e----2---e---3---e-4-e-|

Chorus 6
|-----------------|------------------|
|-4s6~~~~~~~~~~~~~|-6s8-10s8~~~~~8\--|
|-4s6~~~~~~~~~~~~~|-6s8-10s8~~~~~8\--|
|-4s6~~~~~~~~~~~~~|-6s8-10s8~~~~~8\--|
|-2s4~~~~~~~~~~~~~|-4s6-10s6~~~~~6\--|
|-----------------|------------------|
|-1-e-2-e-3-e-4-e-|-1-e--2-e-3-e-4-e-|
Tap to rate this tab
# A B C D E F G H I J K L M N O P Q R S T U V W X Y Z